Oops, an error
Loading. Please wait.

Ashtray Ashtray bass

117 views 1 this week
no commentswrite comment
1 2 3 4 5
2 more votes to show rating
add to favorites
×
Save as Personal and add changes to this tab that will be seen only by you. Learn more ›
×
You can save this tab as Personal to edit and correct it or add notes. All changes will be seen only by you. Learn more »
launch autoscroll
font size
0
reset
guitar tuner
edit
Autoscroll
slow
fast
+/-
esc
set tempo
stop
Author
Die! Die! Die!
Ashtray! Ashtray!
Die! Die! Die! / Die! Die! Die!  EP

BASS TAB

Main Riff (played through into the pre chorus)
|  --------------------------------------------------------------------------------------------- |
|  --------------------------------------------------------------------------------------------- |
|  --------------------------------------------------------------------------------------------- |
|  -9-9-9-9-9-9-9-9-9-9-9-9-9-9-9-9-9-9-9-9-9-9-9-9-9-9---5-5-5-5-5-5-5-5-5-5---0-0-1/9-9-9-9-9- |

Chorus
|  ----------------------------------------------------------------------------------------- |
|  ----------------------------------------------------------------------------------------- |
|  ----------------------------------------------------------------------------------------- |
|  --2-2--2-2-2---6-6--6-6-6---10-10--10-10-10----2-2--2-2-2---6-6--6-6-6---10-10--10-10-10- |

|  ----------------------------------------------------------------------------------------- |
|  ----------------------------------------------------------------------------------------- |
|  ----------------------------------------------------------------------------------------- |
|  --2-2--2-2-2---6-6--6-6-6---10-10--10-10-10----2-2--2-2-2---6-6--6-6-6---10-10--10-10-10- |

|  ----------------------------------------------------------------------------------------- |
|  ----------------------------------------------------------------------------------------- |
|  --2-2--2-2-2---6-6--6-6-6---10-10--10-10-10----2-2--2-2-2---6-6--6-6-6---10-10--10-10-10- |
|  ----------------------------------------------------------------------------------------- |

|  ----------------------------------------------------------------------------------------- |
|  ----------------------------------------------------------------------------------------- |
|  ----------------------------------------------------------------------------------------- |
|  --2-2--2-2-2---6-6--6-6-6---10-10--10-10-10----2-2--2-2-2---6-6--6-6-6---10-10--10-10-10- |


Neways, I hope the tab is decent, please rate it and if you like Die!Die!Die! or you’ve 
some suggestions then email me on jamesdonaldson@hot-shot.com

Cheers

            
            
Suggest correction
Creating personal tab
Creating personal tab
You can edit any tab online and save it as your Personal.

You can edit, replace or remove any tab part or add personal notes – all changes will be seen only by you.

Personal tabs can be accessed anytime from any device, even offline.
Learn more »
Give kudos to tab author, rate the tab!
1 2 3 4 5
comments
print report bad tab
guest
You may want to rate the tab now too:
select rating
Wanna post a correction for this tab? Suggest correction