Oops, an error
Loading. Please wait.

Hoch Den Rock Rein Den Stock Chords

1 view 1 this week
no commentswrite comment
1 2 3 4 5
3 more votes to show rating
add to favorites
launch autoscroll
font size
0
reset
transpose
0
reset
display chords
guitar tuner
Autoscroll
slow
fast
+/-
esc
set tempo
stop
Help us to improve Ultimate-Guitar.com Take our survey!
×
---------------------------------------------
DIE KASSIERER - Hoch den Rock, rein den Stock
---------------------------------------------

     G              C
Mach hoch den Rock, rein den Stock
D              G
Hoch den Rock, rein den Stock
G              C              D    G
Hoch den Rock, rein den Stock


[BRIDGE:] (play this solo part on guitar for the brass)

   G     C     D     G     G     C 
    D     G
E--3-3---------2-2-2-3-----3-3---------2-2-2-3--|
B------3---5-5---------3-------3---5-5----------|
G--------5---------------4-------5--------------|
D-----------------------------------------------|
A-----------------------------------------------|
E-----------------------------------------------|


     G             C
Mach auf den Mund, Pimmel in den Schlund
D             G
Auf den Mund, Pimmel in den Schlund
G             C                     D    G
Auf den Mund, Pimmel in den Schlund


[BRIDGE:] (play this solo part on guitar for the brass)

   G     C     D     G     G     C 
    D     G
E--3-3---------2-2-2-3-----3-3---------2-2-2-3--|
B------3---5-5---------3-------3---5-5----------|
G--------5---------------4-------5--------------|
D-----------------------------------------------|
A-----------------------------------------------|
E-----------------------------------------------|


G            C
Heut mal den Hintereingang
D            G
Heut mal den Hintereingang
G            C             D    G
Heut mal den Hintereingang


[BRIDGE:] (play this solo part on guitar for the brass)

   G     C     D     G     G     C 
    D     G
E--3-3---------2-2-2-3-----3-3---------2-2-2-3--|
B------3---5-5---------3-------3---5-5----------|
G--------5---------------4-------5--------------|
D-----------------------------------------------|
A-----------------------------------------------|
E-----------------------------------------------|


     G#             C#
Mach hoch den Rock, rein den Stock
D#             G#
Hoch den Rock, rein den Stock
G#             C#             D#   G#
Hoch den Rock, rein den Stock


[OUTRO:] (play this solo part on guitar for the brass)

   G#    C#    D#    G#    G#    
C#    D#    G#
E--4-4---------3-3-3-4-----4-4---------3-3-3-4--|
B------4---6-6---------4-------4---6-6----------|
G--------6---------------5-------6--------------|
D-----------------------------------------------|
A-----------------------------------------------|
E-----------------------------------------------|
Suggest correction
Give kudos to tab author, rate the tab!
1 2 3 4 5
comments
print report bad tab
guest
You may want to rate the tab now too:
select rating
Wanna post a correction for this tab? Suggest correction