Oops, an error
Loading. Please wait.

Black Beauty White Heat tab

58 views 3 this week
no commentswrite comment
1 2 3 4 5
3 more votes to show rating
add to favorites
×
Save as Personal and add changes to this tab that will be seen only by you. Learn more ›
×
You can save this tab as Personal to edit and correct it or add notes. All changes will be seen only by you. Learn more »
launch autoscroll
font size
0
reset
how to read this tab
guitar tuner
edit
Autoscroll
slow
fast
+/-
esc
set tempo
stop
           Die Krupps
    - Black Beauty White Heat -
        Paradise Now (1997)
   

  tabbed by PelzR (07-04-2017)


Tuning: 1 step down (D G C F A D)
BPM: 180


Intro/Verse 2
   E E E E E E E E   E E  E E E E  E E
D|-----------------|--------------------||
A|-----------------|--------------------|| 
F|-----------------|--------------------||
C|-----------------|--------------------||
G|-----7/8---7/8---|-----8/10-----10/12-||
D|-0-0-5/6-0-5/6-0-|-0-0-6/-8-0-0--8/10-||
   . .     .     .   . .      . .   


Verse 1
   E E E Q. E E   E E E E Q  E E                       E E E E Q  E E
D|--------------|----------------||                  |----------------||
A|--------------|----------------||     sometimes    |----------------||
F|------------R-|--------------R-||     the last bar |---------R----R-||
C|--------------|----------------||     is slightly  |----------------||
G|--------------|----------------||     modified     |----------------||
D|-0-2-0-3~-0---|-0-2-0-6-2--0---||                  |-0-2-0-6----0---||
 

Pre-Chorus 
   W   W   W   W 
D|---|---|---|---||
A|---|---|---|---||
F|---|---|---|---|| 
C|-7-|-5-|-8-|-5-||
G|-7-|-5-|-8-|-5-||
D|-5-|-3-|-6-|-3-||


Chorus
   Q  E E Q  E E   Q  E Q. E E
D|---------------|-------------||
A|---------------|-------------||
F|---------------|-------------||
C|---------------|-------------||
G|-7------5------|-8----5------||
D|-5--0-0-3--0-0-|-6--0-3--0-0-||
      . .    . .      .    . .


----------
Structure:
----------
Intro      - 4x
Verse 1    - 8x
Break
Verse 2    - 4x
Pre-Chorus - 4x
Chorus     - 4x
Intro      - 8x
Break
Verse 2    - 4x
Pre-Chorus - 4x
Chorus     - 4x
Pre-Chorus - until the end

Description:
------------
W -> whole note
Q -> quarter note  (a point behind the note - like "Q." - is a dotted note)
E -> 8th note

R -> pause     
/ -> slide up
. -> palm mute
~ -> vibrato

            
            
Suggest correction
Creating personal tab
Creating personal tab
You can edit any tab online and save it as your Personal.

You can edit, replace or remove any tab part or add personal notes – all changes will be seen only by you.

Personal tabs can be accessed anytime from any device, even offline.
Learn more »
Give kudos to tab author, rate the tab!
1 2 3 4 5
comments
print report bad tab
guest
You may want to rate the tab now too:
select rating
Wanna post a correction for this tab? Suggest correction