Oops, an error
Loading. Please wait.

Paradise Now tab

16 views 1 this week
no commentswrite comment
1 2 3 4 5
3 more votes to show rating
add to favorites
×
Save as Personal and add changes to this tab that will be seen only by you. Learn more ›
×
You can save this tab as Personal to edit and correct it or add notes. All changes will be seen only by you. Learn more »
launch autoscroll
font size
0
reset
how to read this tab
guitar tuner
edit
Autoscroll
slow
fast
+/-
esc
set tempo
stop
           Die Krupps
        - Paradise Now -
          Paradise Now (1997)
   

  tabbed by PelzR (07-01-2017)


Tuning: 1 step down (D G C F A D)
BPM: 120


Clean Guitar
   E E E E E E E E   E E E E E E E E
D|-----------------|-----------------||
A|-----------------|-----------------||
F|-----------------|-----------------||
C|-----2-----2-----|-----0-------0---||
G|---2-----2---2---|---0---0---0---0-||
D|-0-----0-------0-|-3-------2-------||


Verse 1
    W                 H       H
D|-----------------|-----------------||
A|-----------------|-----------------|| 
F|-----------------|-----------------|| 
C|-----------------|-----------------||
G|-----------------|-----------------||
D|-0---------------|-3-------2-------||
  
 
Verse 2 (also Pre-Chorus)
    W                 H       H         W                 H       H
D|-----------------|-----------------|-----------------|-----------------||
A|-----------------|-----------------|-----------------|-----------------|| 
F|-----------------|-----------------|-----------------|-----------------|| 
C|-----------------|-----------------|-----------------|-----------------||
G|-----------------|-----------------|-----------------|-----------------||
D|-0---------------|-3-------2-------|-0---------------|-3-------5-------||


Fade In
   W     W
D|----|-----||
A|----|-----|| 
F|-9~-|-(9)-||
C|----|-----||
G|----|-----||
D|----|-----||


Bridge
   E E Q  E E E E   H
D|----------------|---||
A|----------------|---|| 
F|----------------|---||
C|-2-4-5--7-5-2-5-|-4-|| Voice 1
G|----------------|---||          
D|-0-2-3--5-3-0-3-|-2-|| Voice 2


Chorus  
    E E SS Q  SS E SS 2x E E SS Q  SS E E    E  Q  E.S E E E
d|---------------------|------------------|------------------|
A|---------------------|------------------|------------------|
F|o-------------------o|------------------|------------------|
C|o-------------------o|------------------|------------------|
G|--8-7----2-----2-----|-8-7----2-----2-5-|-(5)-7--5-2-5\4-8-|
D|--6-5-00-0--00-0-00--|-6-5-00-0--00-0-3-|-(3)-5--3-0-3\2-6-|
        ..    ..   ..        ..    ..
 
    E E SS Q  SS E SS 2x E E SS Q  SS E E    E  Q  E.S E Q
d|---------------------|------------------|----------------||
A|---------------------|------------------|----------------||
F|o-------------------o|------------------|----------------||
C|o-------------------o|------------------|----------------||
G|--8-7----2-----2-----|-8-7----2-----2-5-|-(5)-7--5-2-5\4-||
D|--6-5-00-0--00-0-00--|-6-5-00-0--00-0-3-|-(3)-5--3-0-3\2-||
        ..    ..   ..        ..    ..


Structure:
----------
Verse 1 - 5x with 'clean guitar'
Verse 2 - 4x with 'clean guitar' (at third repeat + 'Fade In' 3x)
Bridge  - 1x
Chorus  - 2x
Verse 1 - 4x with 'clean guitar'
Verse 2 - 4x with 'clean guitar' (at third repeat + 'Fade In' 4x)
Break
Chorus  - until the end


Description:
------------
W     -> whole note
H     -> half note
Q     -> quarter note
E     -> 8th note (a point behind the note - like "E." - is a dotted note)
S     -> 16th note

o
o     -> repeat

\     -> slide down
()    -> let this note ring
.     -> palm mute
~     -> vibrato

            
            
Suggest correction
Creating personal tab
Creating personal tab
You can edit any tab online and save it as your Personal.

You can edit, replace or remove any tab part or add personal notes – all changes will be seen only by you.

Personal tabs can be accessed anytime from any device, even offline.
Learn more »
Give kudos to tab author, rate the tab!
1 2 3 4 5
comments
print report bad tab
guest
You may want to rate the tab now too:
select rating
Wanna post a correction for this tab? Suggest correction