Oops, an error
Loading. Please wait.

Rise Up tab

4 views 1 this week
no commentswrite comment
1 2 3 4 5
3 more votes to show rating
add to favorites
×
Save as Personal and add changes to this tab that will be seen only by you. Learn more ›
×
You can save this tab as Personal to edit and correct it or add notes. All changes will be seen only by you. Learn more »
launch autoscroll
font size
0
reset
how to read this tab
guitar tuner
edit
Autoscroll
slow
fast
+/-
esc
set tempo
stop
          Die  Krupps
          - Rise Up -
        Paradise Now (1997)
   

  tabbed by PelzR (07-02-2017)


Tuning: 1 step down (D G C F A D)
BPM: 125


Verse
   S S S S E E E E E E
D|---------------------||
A|---------------------||
F|---------R-----------||
C|---------------------||
G|-----------5-5-2-2-2-||
D|-6-5-3-0---3-3-0-0-0-||
   . . . .       . . .

Pre-Chorus
   E E E E E E  E  E   E E E E E E E E
D|-------------------|-----------------||
A|-------------------|-----------------||
F|-------------------|-----------------||
C|-------------------|-----------------||
G|-7-7-7-7-7-7-10-10-|-7-7-7-7-7-7-8-8-||
D|-5-5-5-5-5-5--8--8-|-5-5-5-5-5-5-6-6-||
  
 
Chorus
   E E E Q. S S S S
D|------------------||
A|------------------||
F|------------------||
C|------------------||
G|-8-7-5-2----------||
D|-6-5-3-0--0-0-0-0-||
            . . . .


Structure:
----------
Verse      - 16x
Pre-Chorus -  2x
Chorus     -  4x
Verse      - 16x
Chorus     -  8x
Pre-Chorus -  2x
Chorus     -  4x
Verse      - 20x
Pre-Chorus -  2x
Verse      -  8x
Pre-Chorus -  4x
Chorus     - till the end


Description:
------------
Q -> quarter note (a point behind the note - like "Q." - is a dotted note)
E -> 8th note 
S -> 16th note
R -> pause

.     -> palm mute

            
            
Suggest correction
Creating personal tab
Creating personal tab
You can edit any tab online and save it as your Personal.

You can edit, replace or remove any tab part or add personal notes – all changes will be seen only by you.

Personal tabs can be accessed anytime from any device, even offline.
Learn more »
Give kudos to tab author, rate the tab!
1 2 3 4 5
comments
print report bad tab
guest
You may want to rate the tab now too:
select rating
Wanna post a correction for this tab? Suggest correction