Oops, an error
Loading. Please wait.

Donut Kill Self tab

version 3
version 3

Whole song

58 views 1 this week
no commentswrite comment
1 2 3 4 5
3 more votes to show rating
add to favorites
×
Save as Personal and add changes to this tab that will be seen only by you. Learn more ›
×
You can save this tab as Personal to edit and correct it or add notes. All changes will be seen only by you. Learn more »
launch autoscroll
font size
0
reset
how to read this tab
guitar tuner
edit
Autoscroll
slow
fast
+/-
esc
set tempo
stop
 Donut Kill Self - Die Mannequin - Unicorn Steak

Tabbed by: MCfromTMP

Tuning: D Tuning
D|----------|
A|----------|
F|----------|
C|----------|
G|----------|
D|----------|

Intro (0:00)
D|-----------------------------------------------------|
A|-----------------------------------------------------|
F|-----------------------------------------------------|
C|-----------------------------------------------------|
G|----7--x-7-----x----x-7-----x----x-7-----x----x------|
D|0-0----x---7-6-x-6--x---7-5-x-5--x---7-3-x-3--x-3^-0-|
    *                                            

Verse 1 (0:08)
D|----------------------------------------------------|
A|----------------------------------------------------|
F|----------------------------------------------------|
C|----------------------------------------------------|    x2
G|----7--x-7-----x----x-7-----x----x------x----x------|
D|0-0----x---7-6-x-6--x---7-5-x-5--x-5~-3-x-3--x-3^-0-|
    *                                                              

(0:22)
D|---------------------------------------------------|
A|---------------------------------------------------|
F|------------3--3--3-3-3-2--2--2-2-2----------------|
C|2--2--2-2-2-3--3--3-3-3-2--2--2-2-2-5-5-5-5-5-5----|    
G|2--2--2-2-2-1--1--1-1-1-0--0--0-0-0-5-5-5-5-5-5----| 
D|0--0--0-0-0-------------------------3-3-3-3-3-3-3^-| 

Verse 2 (0:29)
D|----------------------------------------------------|
A|----------------------------------------------------|
F|----------------------------------------------------|
C|----------------------------------------------------|    
G|----7--x-7-----x----x-7-----x----x------x----x------|
D|0-0----x---7-6-x-6--x---7-5-x-5--x-5~-3-x-3--x-3^-0-|
    *
                
(0:37)                                            
D|-----------------------------------------------------|
A|-----------------------------------------------------|
F|-----------------------------------------------------|
C|--------------------------------------5--5-5-5-5-5-5-|    
G|----7--x-7-----x----x-7-----x----x----5--5-5-5-5-5-5-|
D|0-0----x---7-6-x-6--x---7-5-x-5--x-5~-3--3-3-3-3-3-5-|
    *

Pre Chorus 1 (0:44)
D|----------------------------------------------------------------|
A|----------------------------------------------------------------|
F|----------------7-7-7-7-7-7-7-7-----------------7-7-7-7-7-7-7-7-|
C|3-3-3-3-3-3-3-3-7-7-7-7-7-7-7-7-3-3-3-3-3-3-3-3-7-7-7-7-7-7-7-7-|    
G|3-3-3-3-3-3-3-3-5-5-5-5-5-5-5-5-3-3-3-3-3-3-3-3-5-5-5-5-5-5-5-5-| 
D|1-1-1-1-1-1-1-1-----------------1-1-1-1-1-1-1-1-----------------| 

(0:51)
D|----------------------------------------------------------------|
A|----------------------------------------------------------------|
F|3-3-3-3-3-3-3-3-----------------3-3-3-3-3-3-3-3-5-5-5-5-5-5-5-5-|
C|3-3-3-3-3-3-3-3-5-5-5-5-5-5-5-5-3-3-3-3-3-3-3-3-5-5-5-5-5-5-5-5-|    
G|1-1-1-1-1-1-1-1-5-5-5-5-5-5-5-5-1-1-1-1-1-1-1-1-3-3-3-3-3-3-3-3-| 
D|----------------3-3-3-3-3-3-3-3---------------------------------|

(Guitar solo over above Rhythm) (0:55)
D|----------------------------------------------------------------|
A|----------------------------------------------------------------|
F|------------------------------------10--9----------10~----------|
C|-------------------------------------------10-8--8--------------|
G|----------------------------------------------------------------|
D|----------------------------------------------------------------|

Chorus 1 (0:59)
D|----------------------------------------------------------------|
A|----------------------------------------------------------------|
F|7-7-7-7-7-7-7-7-5-5-5-5-5-5-5-5-3-3-3-3-3-3-3-3-3-3-3-3-3-3-2-2-|
C|7-7-7-7-7-7-7-7-5-5-5-5-5-5-5-5-3-3-3-3-3-3-3-3-3-3-3-3-3-3-2-2-|    x2 
G|5-5-5-5-5-5-5-5-3-3-3-3-3-3-3-3-1-1-1-1-1-1-1-1-1-1-1-1-1-1-0-0-| 
D|----------------------------------------------------------------| 

(1:13)
D|----------------------------------------------------------------|
A|----------------------------------------------------------------|
F|7-7-7-7-7-7-7-7-101010101010----3-3-3-3-3-3-3-3-3-3-3-3-3-3-2-2-|
C|7-7-7-7-7-7-7-7-1010101010103-3-3-3-3-3-3-3-3-3-3-3-3-3-3-3-2-2-|    
G|5-5-5-5-5-5-5-5-8-8-8-8-8-8-3-3-1-1-1-1-1-1-1-1-1-1-1-1-1-1-0-0-| 
D|----------------------------1-1---------------------------------| 

(1:21)
D|----------------------------------------------------------------|
A|----------------------------------------------------------------|
F|7-7-7-7-7-7-7-7-5-5-5-5-5-5-5-5-3-3-3-3-3-3-3-3-3-3-3-3-3-3-3-3-|
C|7-7-7-7-7-7-7-7-5-5-5-5-5-5-5-5-3-3-3-3-3-3-3-3-3-3-3-3-3-3-3-3-|
G|5-5-5-5-5-5-5-5-3-3-3-3-3-3-3-3-1-1-1-1-1-1-1-1-1-1-1-1-1-1-1-1-| 
D|----------------------------------------------------------------|

(Guitar solo over above Chorus 1 Rhythm) (First appearance 1:03)
D|----------------------------------------------------------------|
A|----------------------------------------------------------------|
F|------------------------------------10--9----------10--9~-------|
C|-------------------------------------------10-8--8--------------|    x4
G|----------------------------------------------------------------|
D|----------------------------------------------------------------|

Rhythm Under Solo 1 (1:29)
D|----------------------------------------------------|
A|----------------------------------------------------|
F|----------------------------------------------------|
C|----------------------------------------------------|
G|----7--x-7-----x----x-7-----x----x------x----x------|
D|0-0----x---7-6-x-6--x---7-5-x-5--x-5~-3-x-3--x-3^-0-|

Solo 1 (1:29)
D|----------------------------------------------------|
A|--------------5--5---------5--5-----8---8-----8^----|
F|--------------7^-7^--------7^-7^--7-10^-10^------9~-|
C|----------------------------------------------------|    
G|----------------------------------------------------| 
D|----------------------------------------------------| 

Verse 3 (1:35)
D|----------------------------------------------------|
A|----------------------------------------------------|
F|----------------------------------------------------|
C|----------------------------------------------------|    
G|----7--x-7-----x----x-7-----x----x------x----x------|
D|0-0----x---7-6-x-6--x---7-5-x-5--x-5~-3-x-3--x-3^-0-|
    *

(1:43)                                          
D|-----------------------------------------------------|
A|-----------------------------------------------------|
F|-----------------------------------------------------|
C|--------------------------------------5--5-5-5-5-5-5-|    
G|----7--x-7-----x----x-7-----x----x----5--5-5-5-5-5-5-|
D|0-0----x---7-6-x-6--x---7-5-x-5--x-5~-3--3-3-3-3-3-5-|
    *

Pre Chorus 2 (1:50)
D|-----------------------------------------------------------------|
A|-----------------------------------------------------------------|
F|----------------7-7-7-7-7-7-7-7-1010101010101212-7-7-7-7-7-7-7-7-|
C|3-3-3-3-3-3-3-3-7-7-7-7-7-7-7-7-1010101010101212-7-7-7-7-7-7-7-7-|    
G|3-3-3-3-3-3-3-3-5-5-5-5-5-5-5-5-8-8-8-8-8-8-1010-5-5-5-5-5-5-5-5-| 
D|1-1-1-1-1-1-1-1--------------------------------------------------| 

(1:58)
D|----------------------------------------------------------------|
A|----------------------------------------------------------------|
F|3-3-3-3-3-3-3-3-----------------3-3-3-3-3-3-3-3-5-5-5-5-5-5-5-5-|
C|3-3-3-3-3-3-3-3-5-5-5-5-5-5-5-5-3-3-3-3-3-3-3-3-5-5-5-5-5-5-5-5-|    
G|1-1-1-1-1-1-1-1-5-5-5-5-5-5-5-5-1-1-1-1-1-1-1-1-3-3-3-3-3-3-3-3-| 
D|----------------3-3-3-3-3-3-3-3---------------------------------|

(Guitar solo over Pre Chorus 2 Rhythm) (1:58)
D|----------------------------------------------------------------|
A|----------------------------------------------------------------|
F|----------------------------------------------------------------|
C|----------------------------------------------------------------|
G|----8--7----------8--7------------8--7------------8---7-----3/5-|
D|---------8--6---6-------8--6---6--------8--6---6----------------|

Chorus 2 (2:05)
D|----------------------------------------------------------------|
A|----------------------------------------------------------------|
F|7-7-7-7-7-7-7-7-5-5-5-5-5-5-5-5-3-3-3-3-3-3-3-3-3-3-3-3-3-3-2-2-|
C|7-7-7-7-7-7-7-7-5-5-5-5-5-5-5-5-3-3-3-3-3-3-3-3-3-3-3-3-3-3-2-2-|
G|5-5-5-5-5-5-5-5-3-3-3-3-3-3-3-3-1-1-1-1-1-1-1-1-1-1-1-1-1-1-0-0-| 
D|----------------------------------------------------------------| 

(2:12)
D|----------------------------------------------------------------|
A|----------------------------------------------------------------|
F|7-7-7-7-7-7-7-7-5-5-5-5-5-5-5-5-3-3-3-3-3-3-2-2-3-3-3-3-3-3-2-2-|
C|7-7-7-7-7-7-7-7-5-5-5-5-5-5-5-5-3-3-3-3-3-3-2-2-3-3-3-3-3-3-2-2-|
G|5-5-5-5-5-5-5-5-3-3-3-3-3-3-3-3-1-1-1-1-1-1-0-0-1-1-1-1-1-1-0-0-| 
D|----------------------------------------------------------------|

(2:19)
D|----------------------------------------------------------------|
A|----------------------------------------------------------------|
F|7-7-7-7-7-7-7-7-101010101010----3-3-3-3-3-3-2-2-3-3-3-3-3-3-2-2-|
C|7-7-7-7-7-7-7-7-1010101010103-3-3-3-3-3-3-3-2-2-3-3-3-3-3-3-2-2-|    
G|5-5-5-5-5-5-5-5-8-8-8-8-8-8-3-3-1-1-1-1-1-1-0-0-1-1-1-1-1-1-0-0-| 
D|----------------------------1-1---------------------------------| 

(2:27)
D|----------------------------------------------------------------|
A|----------------------------------------------------------------|
F|7-7-7-7-7-7-7-7-5-5-5-5-5-5-5-5-3-3-3-3-3-3-3-3-3-3-3-3-3-3-3-3-|
C|7-7-7-7-7-7-7-7-5-5-5-5-5-5-5-5-3-3-3-3-3-3-3-3-3-3-3-3-3-3-3-3-|
G|5-5-5-5-5-5-5-5-3-3-3-3-3-3-3-3-1-1-1-1-1-1-1-1-1-1-1-1-1-1-1-1-| 
D|----------------------------------------------------------------|

(Guitar solo over above Chorus 2 Rhythm) (First appearance 2:09)
D|----------------------------------------------------------------|
A|----------------------------------------------------------------|
F|------------------------------------10--9----------10--9~-------|
C|-------------------------------------------10-8--8--------------|    x4
G|----------------------------------------------------------------|
D|----------------------------------------------------------------|

Bridge (2:34)
D|--------------------------------------------------|
A|--------------------------------------------------|
F|--------------------------------------------------|
C|7--7---5--7--7-7---7-7-8-8--8---7--8--8-8---8-8-7-|    x2   
G|7--7---5--7--7-7---7-7-8-8--8---7--8--8-8---8-8-7-| 
D|5--5---3--5--5-5---5-5-6-6--6---5--6--6-6---6-6-5-| 

(2:49)
D|----------------------------------------------------------------|
A|----------------------------------------------------------------|
F|----------------------------------------------------------------|
C|7-7-7-7-7-7-5-5-7-7-7-7-7-7-7-7-8-8-8-8-8-8-7-7-8-8-8-8-10108-8-|    
G|7-7-7-7-7-7-5-5-7-7-7-7-7-7-7-7-8-8-8-8-8-8-7-7-8-8-8-8-10108-8-| 
D|5-5-5-5-5-5-3-3-5-5-5-5-5-5-5-5-6-6-6-6-6-6-5-5-6-6-6-6-8-8-6-6-| 

(2:56)
D|----------------------------------------------------------------|
A|----------------------------------------------------------------|
F|----------------------------------------------------5-5-5-5-5-5-|
C|7-7-7-7-7-7-5-5-7-7-7-7-7-7-7-7-8-8-8-8-8-8-8-8-8-8-5-5-5-5-5-5-|    
G|7-7-7-7-7-7-5-5-7-7-7-7-7-7-7-7-8-8-8-8-8-8-8-8-8-8-3-3-3-3-3-3-| 
D|5-5-5-5-5-5-3-3-5-5-5-5-5-5-5-5-6-6-6-6-6-6-6-6-6-6-------------| 

(3:03)
D|-------------------------------|
A|-------------------------------|
F|7-7--7--5-5--5--3-3--3--3-3--2-|
C|7-7--7--5-5--5--3-3--3--3-3--2-|    x3    
G|5-5--5--3-3--3--1-1--1--1-1--0-| 
D|-------------------------------| 

(Solo over Rhythm) (3:07)
D|-------------------------------|
A|-------------------------------|
F|-------------------------------|
C|----------------8-7-/10-8-7~---|
G|-------------------------------|
D|-------------------------------|

(3:25)
D|-------------------------------|
A|-------------------------------|
F|7-7--7--5-5--5--3-3--3--3------|
C|7-7--7--5-5--5--3-3--3--3------|    
G|5-5--5--3-3--3--1-1--1--1------| 
D|-------------------------------| 

Pre Chorus 3 (3:32)
D|-----------------------------------------------------------------|
A|-----------------------------------------------------------------|
F|----------------7-7-7-7-7-7-7-7-1010101010101212-7-7-7-7-7-7-7-7-|
C|3-3-3-3-3-3-3-3-7-7-7-7-7-7-7-7-1010101010101212-7-7-7-7-7-7-7-7-|    
G|3-3-3-3-3-3-3-3-5-5-5-5-5-5-5-5-8-8-8-8-8-8-1010-5-5-5-5-5-5-5-5-| 
D|1-1-1-1-1-1-1-1--------------------------------------------------| 

(3:40)
D|----------------------------------------------------------------|
A|----------------------------------------------------------------|
F|3-3-3-3-3-3-3-3-----------------3-3-3-3-3-3-3-3-5-5-5-5-5-5-5-5-|
C|3-3-3-3-3-3-3-3-5-5-5-5-5-5-5-5-3-3-3-3-3-3-3-3-5-5-5-5-5-5-5-5-|    
G|1-1-1-1-1-1-1-1-5-5-5-5-5-5-5-5-1-1-1-1-1-1-1-1-3-3-3-3-3-3-3-3-| 
D|----------------3-3-3-3-3-3-3-3---------------------------------|

(Guitar solo over Pre Chorus 3 Rhythm) (3:40)
D|----------------------------------------------------------------|
A|----------------------------------------------------------------|
F|----------------------------------------------------------------|
C|----------------------------------------------------------------|
G|----8--7----------8--7------------8--7------------8---7-----3/5-|
D|---------8--6---6-------8--6---6--------8--6---6----------------|

Chorus 3 (3:47)
D|----------------------------------------------------------------|
A|----------------------------------------------------------------|
F|7-7-7-7-7-7-7-7-5-5-5-5-5-5-5-5-3-3-3-3-3-3-3-3-3-3-3-3-3-3-2-2-|
C|7-7-7-7-7-7-7-7-5-5-5-5-5-5-5-5-3-3-3-3-3-3-3-3-3-3-3-3-3-3-2-2-|
G|5-5-5-5-5-5-5-5-3-3-3-3-3-3-3-3-1-1-1-1-1-1-1-1-1-1-1-1-1-1-0-0-| 
D|----------------------------------------------------------------| 

(3:55)
D|----------------------------------------------------------------|
A|----------------------------------------------------------------|
F|7-7-7-7-7-7-7-7-5-5-5-5-5-5-5-5-3-3-3-3-3-3-2-2-3-3-3-3-3-3-2-2-|
C|7-7-7-7-7-7-7-7-5-5-5-5-5-5-5-5-3-3-3-3-3-3-2-2-3-3-3-3-3-3-2-2-|
G|5-5-5-5-5-5-5-5-3-3-3-3-3-3-3-3-1-1-1-1-1-1-0-0-1-1-1-1-1-1-0-0-| 
D|----------------------------------------------------------------|

(4:02)
D|----------------------------------------------------------------|
A|----------------------------------------------------------------|
F|7-7-7-7-7-7-7-7-101010101010----3-3-3-3-3-3-2-2-3-3-3-3-3-3-2-2-|
C|7-7-7-7-7-7-7-7-1010101010103-3-3-3-3-3-3-3-2-2-3-3-3-3-3-3-2-2-|    
G|5-5-5-5-5-5-5-5-8-8-8-8-8-8-3-3-1-1-1-1-1-1-0-0-1-1-1-1-1-1-0-0-| 
D|----------------------------1-1---------------------------------| 

(Guitar solo over above Chorus 3 Rhythm) (First appearance 3:51)
D|----------------------------------------------------------------|
A|----------------------------------------------------------------|
F|------------------------------------10--9----------10--9~-------|
C|-------------------------------------------10-8--8--------------|    x3
G|----------------------------------------------------------------|
D|----------------------------------------------------------------|

(Outro) (4:09)
D|---------------------------------------------------------------------|
A|---------------------------------------------------------------------|
F|7-7-7-7-7-7-7-7-5-5-5-5-5-5-5-5-3-3-3-3-3-3-3-3-3-3-3-3-3-3-3-3------|
C|7-7-7-7-7-7-7-7-5-5-5-5-5-5-5-5-3-3-3-3-3-3-3-3-3-3-3-3-3-3-3-3-2~~~-|
G|5-5-5-5-5-5-5-5-3-3-3-3-3-3-3-3-1-1-1-1-1-1-1-1-1-1-1-1-1-1-1-1-2~~~-| 
D|----------------------------------------------------------------0~~~-|



(Guitar solo over above Outro Rhythm) (4:13)
D|---------------------------------------------------------------------|
A|---------------------------------------------------------------------|
F|------------------------------------10--9------------10--9-----------|
C|-------------------------------------------10--8---8--------10--7^r\-|
G|---------------------------------------------------------------------|
D|---------------------------------------------------------------------| 

Tablature Legend
----------------
~ Vibrato/Let it ring   
\ Slide Down
^ Bend
r Release 
x Fret-Hand Mutes

(Time:Stamp) included to play along with album version. 

            
            
Suggest correction
Creating personal tab
Creating personal tab
You can edit any tab online and save it as your Personal.

You can edit, replace or remove any tab part or add personal notes – all changes will be seen only by you.

Personal tabs can be accessed anytime from any device, even offline.
Learn more »
Give kudos to tab author, rate the tab!
1 2 3 4 5
comments
print report bad tab
guest
You may want to rate the tab now too:
select rating
Wanna post a correction for this tab? Suggest correction