Oops, an error
Loading. Please wait.

Start It Up bass

275 views 1 this week
no commentswrite comment
1 2 3 4 5
3 more votes to show rating
add to favorites
×
Save as Personal and add changes to this tab that will be seen only by you. Learn more ›
×
You can save this tab as Personal to edit and correct it or add notes. All changes will be seen only by you. Learn more »
launch autoscroll
font size
0
reset
guitar tuner
edit
Autoscroll
slow
fast
+/-
esc
set tempo
stop
Author
Difficulty
Band: Die Mannequin
Song: Start It Up
Album: Fino + Bleed
Bassist: Anthony Bleed

Tabbed by Ben Doyon aka. Xnay
Comments to xnaysaturo@gmail.com

E Standard Tuning
E-A-D-G

h = Hammer-On
* = Natural Harmonic
\ = Slide Down

Intro
G|-----------------------------------------------------------------|
D|-----------------------------------------------------------------| 
A|-----------------------------------------------------------------|
E|-8-8-8-8-8-8-8-8-8-8-8-8-8-8-8-8-1-1-1-1-1-1-1-1-1-1-1-1-1-1-1-1-|

G|-----------------------------------------------------------------|
D|-----------------------------------------------------------------| 
A|-----------------------------------------------------------------|
E|-8-8-8-8-8-8-8-10-11-13-15-16p15-13-1-1-1-1-1-1-1-1-1-1-1-1-0-0--|

Verse

Hold on
Who’s running out, who’s leaving soon
Packed my bags for a quarter to four
I’ll be waiting outside my door

G|---------------------------------------------------------------------|
D|---------------------------------------------------------------------| 
A|---------------------------------------------------------------------| x2
E|-8---8-8-8-8-8-8-8-6h8---8-8-8-8-8-8-6-6-6-6-6-6-6-6-4-4-4-4-4-4-4-4-|

Prechorus

Sneak me, save me
Break out, and we...

G|-----------------------------------------------------------------|
D|-----------------------------------------------------------------| 
A|-----------------------------------------------------------------|
E|-1-1-1-1-1-1-1-1-1-1-1-1-1-1-1-1-1-1-1-1-1-1-1-1-1-1-1-1-1-1-1-1-|

Chorus

Start the car,
And we’ll make our escape now we do
We’ll forget our lives
Nothing packed no goodbyes now, we’re through
Start it up, leave behind the old life that we knew
And forgive me Ma, but I’ll die if I stay here with you

G|-----------------------------------------------------------------|
D|-----------------------------------------------------------------| 
A|-----------------------------------------------------------------| x4
E|-8-8-8-8-8-8-8-8-8-8-8-8-8-8-8-8-1-1-1-1-1-1-1-1-1-1-1-1-1-1-1-1-|

Verse x4

Far gone,
Starving for days, craving a change
Carve my name in a bathroom stall,
Is this what you’ve been living for

Hard fall
Who’s laughing now,  who’s fooling who
Right as rain , “I can never go home”…
Is this what you all take me for

Prechorus

Are you ready
Reckless as we…

Chorus x4

Start it up
And we’ll make our escape now, we do
We’ll forget our lives,
Nothing packed no goodbyes now we’re through
Start the car,
Leave behind the old life that we knew
So you’ve had enough, and decide you have nothing to lose

Bridge

Right or wrong (don’t go)
I’ll be gone (or go)
Can’t go home (don’t go)
So we don’t.

G|-----------------------------------------------------------------|
D|-----------------------------------------------------------------| 
A|-----------------------------------------------------------------| 
E|-4-4-4-4-4-4-4-4-4-4-4-4-4-4-4-4-8-8-8-8-8-8-8-8-8-8-8-8-8-8-8-8-|

G|-----------------------------------------------------------------|
D|-----------------------------------------------------------------| 
A|-----------------------------------------------------------------| 
E|-4-4-4-4-4-4-4-4-4-4-4-4-4-4-4-4-6-6-6-6-6-6-6-6-6-6-6-6-6-6-6-6-|

Chorus x4

Start it up,
And we’ll maker our escape now we do
We’ll forget our lives,
Don’t look back, no goodbyes now we’re through
Start the car,
Leave behind the old life that we knew
I know I’ll be fine,
Just as long as I’m always with you

Outro (same as intro)

            
            
Suggest correction
Creating personal tab
Creating personal tab
You can edit any tab online and save it as your Personal.

You can edit, replace or remove any tab part or add personal notes – all changes will be seen only by you.

Personal tabs can be accessed anytime from any device, even offline.
Learn more »
Give kudos to tab author, rate the tab!
1 2 3 4 5
comments
print report bad tab
guest
You may want to rate the tab now too:
select rating
Wanna post a correction for this tab? Suggest correction