Oops, an error
Loading. Please wait.

Alles Aus Liebe tab

version 1
version 1

Whole song

Interactive

94,413 views 69 this week
4 commentsread comments
1 2 3 4 5
x 30
add to favorites
×
Save as Personal and add changes to this tab that will be seen only by you. Learn more ›
×
You can save this tab as Personal to edit and correct it or add notes. All changes will be seen only by you. Learn more »
launch autoscroll
font size
0
reset
how to read this tab
guitar tuner
edit
Autoscroll
slow
fast
+/-
esc
set tempo
stop
Author
Difficulty
Alles aus Liebe
Die Toten Hosen
Tabber: Steini
Verbesserungen von "tommes2" übernommen...many thanks!
-----------------------------------------------------

[Intro]

  C                       Am                      F                       G           G7
|---------------------------------------------------1-----------1-----------3-----------1----------|
|---1-----------1-----------1-----------1---------------1-----------1-----------0-----------0------|
|-------0-----------0-----------2-----------2---------2-----------2-----------0-----0-----0--------|
|-----2-----2-----2-----------2-----2-----2-----------------3---------3----------------------------|
|-3-----------3-------3-2-0-----------0-------0-------------------------0---------------------0-2--|
|-----------------------------------------------0-1-----------1-----------3-----------3------------|

[Verse 1]
     C                        Am                    F                          G     G7
Ich würde dir gern sagen, wie sehr ich Dich mag   Warum ich nur noch an Dich denken kann
     C                               Am                F                  G     G7
Ich fühl´ mich wie verhext und in Gefangenschaft  Und Du allein trägst Schuld daran
 Am           F                     G                      E7
Worte sind dafür zu schwach  Ich befürchte Du glaubst mir nicht
             Am               F                     G
Mir kommt es vor als ob mich jemand warnt:  Dieses Märchen wird nicht gut ausgehn
            C               Am                   F                             G
Es ist die Eifersucht, die mich auffrisst Immer dann, wenn Du nicht in meiner Nähe bist
     C                      Am                 F                             G
Von Dr. Jekyll werd´ ich zu Mr. Hyde Ich kann nichts dagegen tun, plötzlich ist es so weit
         Am          F                  G                 E    Riff1
Ich bin kurz davor, durchzudreh´n   Aus Angst dich zu verliern
    Am                 F                         G Riff2              G7
Und dass und jetzt kein Unglück geschieht  Dafür kann ich nicht garantier´n

Riff 1:               Riff 2:
e|-------------------| e|--------------------------------------------|
B|-------------------| B|--------------------------------------------|
G|-------------------| G|--------------------------------------------|
D|-------------------| D|------------------------------------2-3-----|
A|-------------------| A|--------------2-2-2-2-2-2-5-5-5-5-5---------|
E|--0-4-4-5-7-7-4----| E|--3-3-3-3-3-3-------------------------------|

[Chorus]
           C  E                Am   G                 C                E      G
Und alles nur, weil ich dich liebe     und ich nicht weiß wie ich´s beweisen soll
          C             E         Am   F           G                  C    -G
Komm ich zeig dir wie groß meine Liebe ist   Und bringe mich für dich um.

   C                         Am           F                                     G
Sobald deine Laune etwas schlechter ist  Bild´ ich mir gleich ein, daß Du mich nicht mehr willst  
      C            Am                F                         G
Ich sterbe beim Gedanken daran, dass ich Dich nicht für immer halten kann
    Am                 F                        G                     E    Riff1
Auf einmal brennt ein Feuer in mir     Und der Rest der Welt wird schwarz
      Am             F                     G Riff2               G7
Ich spür wie unsere Zeit verrinnt,    Wir nähern uns dem letzten Akt

[Chorus]
           C  E                Am   G                 C                E      G
Und alles nur, weil ich dich liebe     und ich nicht weiß wie ich´s beweisen soll
          C             E         Am   F           G                  C    -G
Komm ich zeig dir wie groß meine Liebe ist   Und bringe mich für dich um.

Solo (from "tommes2"):

       C                     Am                    F
e|---6/8-8---8---8-----------8-8---8---8-----------8-8---8---8---------------|
B|---------8---8-----------------8---8-----------------8---8-----------------|
G|-----------------5-5-------------------5-5-------------------5-5-----------|
D|-----------------------5---------------------7---------------------7-------|
A|---------------------------------------------------------------------------|
E|---------------------------------------------------------------------------|

       G                  G7               C    
e|---8/10-10-10-10-10-10-10-10-10-10-10-12-12----12----12--------------------|
B|-8-8/10-10-10-10-10-10-10-10-10-10-10-------13----13-----------------------|
G|--------------------------------------------------------12-12--------------|
D|----------------------------------------------------------------14---------|
A|---------------------------------------------------------------------------|
E|---------------------------------------------------------------------------|

   Am                             F
e|-12-12----12----12-------------12-12----12----12---------------------------|
B|-------13----13----------------------13----13------------------------------|
G|-------------------14-14-------------------------14-14---------------------|
D|---------------------------14----------------------------15-14-------------|
A|---------------------------------------------------------------------------|
E|---------------------------------------------------------------------------|

       G             G7
e|-13/15-15-15-15-15-15-15-15-15-15\-----------------------------------------|
B|-13/15-15-15-15-15-15-15-15-15-15\-----------------------------------------|
G|---------------------------------------------------------------------------|
D|---------------------------------------------------------------------------|
A|---------------------------------------------------------------------------|
E|---------------------------------------------------------------------------|


         Am          F                  G                 E    Riff1
Ich bin kurz davor, durchzudreh´n   Aus Angst dich zu verliern
    Am                 F                         G Riff2              G7
Und dass und jetzt kein Unglück geschieht  Dafür kann ich nicht garantier´n

[Chorus] x2
           C  E                Am   G                 C                E      G
Und alles nur, weil ich dich liebe     und ich nicht weiß wie ich´s beweisen soll
          C             E         Am   F           G                  C    -G
Komm ich zeig dir wie groß meine Liebe ist   Und bringe mich für dich um.

         C             E           Am  F
Komm ich zeig dir wie groß meine Liebe ist
      G              C
Und bringe uns beide um

            
            
Suggest correction
Creating personal tab
Creating personal tab
You can edit any tab online and save it as your Personal.

You can edit, replace or remove any tab part or add personal notes – all changes will be seen only by you.

Personal tabs can be accessed anytime from any device, even offline.
Learn more »
comments
print report bad tab
4 comments total. Showing first comments.
+1 reply
pizzamampff 436 Jul 31, 2013 03:59 PM

die chords stimmen,aber intro und solo :(

0 reply
x_Yin_x 10 Mar 30, 2016 10:53 PM

The Intro, the tabs, the chorus, the riffs and the solo is wrong. That's the reason for the bad rating. But thanks for the try.

0 reply
steini 1,148 May 14, 2016 08:10 AM

Update wurde gemacht!

guest
You may want to rate the tab now too:
select rating
Wanna post a correction for this tab? Suggest correction