Oops, an error
Loading. Please wait.

Alles Aus Liebe tab

version 2
version 2

Whole song

Interactive

1,027 views 9 this week
no commentswrite comment
1 2 3 4 5
x 3
add to favorites
×
Save as Personal and add changes to this tab that will be seen only by you. Learn more ›
×
You can save this tab as Personal to edit and correct it or add notes. All changes will be seen only by you. Learn more »
launch autoscroll
font size
0
reset
how to read this tab
guitar tuner
edit
Autoscroll
slow
fast
+/-
esc
set tempo
stop
Author
Die toten Hosen - Alles aus Liebe



Da bisherige Versionen nie korrekt waren, hier mal mein Tab für den Klassiker der Hosen.

Für Anfänger hier noch ein paar Worte zur richtigen Einstellung/Spielweise der E-Gitarren. 
Das Lied lässt sich allerdings auch prima akustisch, oder mit nur einer Gitarre spielen.

 Str. 1 wird, wie das Intro, gepickt gespielt (clean).
 Str. 2, 4 & 6 werden teilweise (bis auf den letzten Schlag des jeweiligen Akkords) 
  gemuted gespielt (bei Str. 2 noch clean, Str. 4 & 6 mit Verzerrung). Bei Str. 4 & 6 spielt 
  jeweils eine zweite Gitarre die angegebenen Riffs darüber. 
 Bei Str. 3 spielt Git. 1 (clean) weiter das Intro, Git. 2 (verzerrt) schlägt die jeweiligen
  Akkorde dazu an.
 Str. 5 wird ebenfalls gemuted gespielt.
 Die Refrains sind alle verzerrt gespielt.


Intro:
  C                       Am                      F                       G           G7
|---------------------------------------------------1-----------1-----------3-----------1----------|
|---1-----------1-----------1-----------1---------------1-----------1-----------0-----------0------|
|-------0-----------0-----------2-----------2---------2-----------2-----------0-----0-----0--------|
|-----2-----2-----2-----------2-----2-----2-----------------3---------3----------------------------|
|-3-----------3-------3-2-0-----------0-------0-------------------------0---------------------0-2--|
|-----------------------------------------------0-1-----------1-----------3-----------3------------|


[Strophe 1]
C                             Am                   F                        G      G7
Ich würde dir gern sagen, wie sehr ich dich mag, warum ich nur noch an dich denken kann
    C                              Am               F                G        G7
ich fühl mich wie verhext und in Gefangenschaft und du allein trägst Schuld daran.


[Strophe 2]
Am           F                     G                      E7
Worte sind dafür zu schwach, ich befürchte du glaubst mir nicht.
             Am               F                    G
Mir kommt es vor, als ob mich jemand warnt, dieses Märchen wird nicht gut ausgehen.


[Strophe 3]
           C               Am                    F                            G      G7
Es ist die Eifersucht, die mich auffrisst, immer dann wenn du nicht in meiner Nähe bist.
    C                      Am                 F                            G          G7
Von Dr. Jekyll werd ich zu Mr. Hyde, ich kann nichts dagegen tun plötzlich ist es so weit.


Riff 1:
e|-------------------|
B|-------------------|
G|-------------------|
D|-------------------|
A|-------------------|
E|--0-4-4-5-7-7-4----|

Riff 2:
e|---------------------------------------------------------------------------|
B|---------------------------------------------------------------------------|
G|---------------------------------------------------------------------------|
D|------------------------------------2-3------------------------------------|
A|--------------2-2-2-2-2-2-5-5-5-5-5----------------------------------------|
E|--3-3-3-3-3-3--------------------------------------------------------------|


[Strophe 4]
                                                              Riff 1
        Am          F                  G                E
Ich bin kurz davor, durchzudrehen, aus Angst dich zu verlieren

                                                 Riff 2
    Am                  F                        G                   G7
und dass uns jetzt kein Unglück geschieht, dafür kann ich nicht garantieren.


[Refrain]
          C    E             Am   G              C               E      G   G7
Und alles nur, weil ich dich liebe und ich nicht weiß wie ichs beweisen soll.
         C             E          Am    F       G                    C  G
Komm ich zeig dir, wie groß meine Liebe ist und bringe mich für dich um.


[Strophe 5]
C                        Am              F                                     G
Sobald deine Laune etwas schlechter ist, bild ich mir gleich ein, dass du mich nicht mehr Willst.
    C             Am                 F                        G
Ich sterbe beim Gedanken daran, dass ich dich nicht für immer halten kann.


[Strophe 6]
                                                                     Riff 1
    Am                F                    G                  E
Auf einmal brennt ein Feuer in mir und der Rest der Welt wird schwarz.

                                       Riff 2
    Am              F                  G                      G7
Ich spür wie unsere Zeit verrinnt, wir nähern uns dem letzten Akt.


[Refrain]
          C    E             Am   G              C               E      G   G7
Und alles nur, weil ich dich liebe und ich nicht weiß wie ichs beweisen soll.
         C             E          Am    F       G                    C  G
Komm ich zeig dir, wie groß meine Liebe ist und bringe mich für dich um.


Solo:
(Akkorde dazu: 
 C Am F G G7
 C Am F G G7)

e|---6/8-8---8---8-----------8-8---8---8-----------8-8---8---8---------------|
B|---------8---8-----------------8---8-----------------8---8-----------------|
G|-----------------5-5-------------------5-5-------------------5-5-----------|
D|-----------------------5---------------------7---------------------7-------|
A|---------------------------------------------------------------------------|
E|---------------------------------------------------------------------------|

e|---8/10-10-10-10-10-10-10-10-10-10-10-12-12----12----12--------------------|
B|-8-8/10-10-10-10-10-10-10-10-10-10-10-------13----13-----------------------|
G|--------------------------------------------------------12-12--------------|
D|----------------------------------------------------------------14---------|
A|---------------------------------------------------------------------------|
E|---------------------------------------------------------------------------|

e|-12-12----12----12-------------12-12----12----12---------------------------|
B|-------13----13----------------------13----13------------------------------|
G|-------------------14-14-------------------------14-14---------------------|
D|---------------------------14----------------------------15-14-------------|
A|---------------------------------------------------------------------------|
E|---------------------------------------------------------------------------|

e|-13/15-15-15-15-15-15-15-15-15-15\-----------------------------------------|
B|-13/15-15-15-15-15-15-15-15-15-15\-----------------------------------------|
G|---------------------------------------------------------------------------|
D|---------------------------------------------------------------------------|
A|---------------------------------------------------------------------------|
E|---------------------------------------------------------------------------|


[Strophe 4]
                                                              Riff 1
        Am          F                  G                E
Ich bin kurz davor, durchzudrehen, aus Angst dich zu verlieren

                                                 Riff 2
    Am                  F                        G                   G7
und dass uns jetzt kein Unglück geschieht, dafür kann ich nicht garantieren.


[Refrain]
          C    E             Am   G              C               E      G   G7
Und alles nur, weil ich dich liebe und ich nicht weiß wie ichs beweisen soll.
         C             E          Am    F       G                    C  G
Komm ich zeig dir, wie groß meine Liebe ist und bringe mich für dich um.


[Refrain]
          C    E             Am   G              C               E      G   G7
Und alles nur, weil ich dich liebe und ich nicht weiß wie ichs beweisen soll.
         C             E          Am    F       G                    C  G
Komm ich zeig dir, wie groß meine Liebe ist und bringe mich für dich um.


          C             E          Am    F        G                    C
Komm, ich zeig dir, wie groß meine Liebe ist, und bringe mich für dich um.


_____________


Hier noch eine alternative Version des Solos, wie Kuddel sie bei Heimspiel live gespielt hat:

e|-----8-8---8---8-----------8-8---8---8-------------8---8---8---------------|
B|-5/8-----8---8-----------------8---8-------------8---8---8---6-6-----------|
G|-----------------5-5-------------------5-5-------------------------5-------|
D|-----------------------5---------------------7-----------------------------|
A|---------------------------------------------------------------------------|
E|---------------------------------------------------------------------------|

e|-8/10-10-10-10-10-------------12-12----12----12--------------12-12----12----12------------|
B|-8/10-10-10-10-10-8-8\6-6-6---------13----13-----------------------13----13---------------|
G|------------------------------------------------12-12--------------------------14-14------|
D|--------------------------------------------------------14-----------------------------14-|
A|------------------------------------------------------------------------------------------|
E|------------------------------------------------------------------------------------------|

e|-12-12----12----12----12----12----12---------------------------------------|
B|-------13----13----------13----13-------11/12-12-12-13-13-13-15b-----------|
G|-------------------15----------------15------------------------------------|
D|---------------------------------------------------------------------------|
A|---------------------------------------------------------------------------|
E|---------------------------------------------------------------------------|



            
            
Suggest correction
Creating personal tab
Creating personal tab
You can edit any tab online and save it as your Personal.

You can edit, replace or remove any tab part or add personal notes – all changes will be seen only by you.

Personal tabs can be accessed anytime from any device, even offline.
Learn more »
Give kudos to tab author, rate the tab!
1 2 3 4 5
comments
print report bad tab
guest
You may want to rate the tab now too:
select rating
Wanna post a correction for this tab? Suggest correction