Oops, an error
Loading. Please wait.

Bayern Bass Tab

version 1
version 1

Whole song

Interactive

1,076 views 6 this week
no commentswrite comment
1 2 3 4 5
please rate
add to favorites
launch autoscroll
font size
0
reset
guitar tuner
Autoscroll
slow
fast
+/-
esc
set tempo
stop
Help us to improve Ultimate-Guitar.com Take our survey!
×
Contributor
Difficulty
Bliss101 130
novice
Bayern - Die Toten Hosen

Standard Tuning (EADG)     r= let it ring
-----------------------------------------

0:00 Verse 1

0:39 Chorus 1 (Bass starts)

G|---------------|---------------|---------------|---------------|
D|---------------|---------------|---------------|---------------|
A|---------------|0--------------|---------------|2--------------|
E|0--------------|---------------|0--------------|---------------|

G|---------------|---------------|---------------|---------------|
D|---------------|---------------|---------------|---------------|
A|---------------|0--------------|---------------|---------------|
E|0--------------|---------------|2-X-2-X-2-2-2-2|2-X-2-X-2-2-2-2|

G|---------------|---------------|
D|---------------|---------------|
A|2-X-2-X-2-2-2-2|2-X-2-X-2-2-2-2|
E|---------------|---------------|

0:58 Verse 2

G|---------------|---------------|---------------|---------------|
D|---------------|---------------|---------------|---------------|
A|---------------|0-0-0-0-0-0-0-0|---------------|2-2-2-2-2-2-2-2|
E|0-0-0-0-0-0-0-0|---------------|0-0-0-0-0-0-0-0|---------------|

G|---------------|---------------|---------------|---------------|
D|---------------|---------------|---------------|---------------|
A|4-4-4-4-4-4-4-4|0-0-0-0-0-0-0-0|2-2-2-2-2-2-2-2|2-2-2-2-2-2-2-2|
E|---------------|---------------|---------------|---------------|

G|---------------|---------------|---------------|---------------|
D|---------------|---------------|---------------|---------------|
A|---------------|0-0-0-0-0-0-0-0|---------------|2-2-2-2-2-2-2-2|
E|0-0-0-0-0-0-0-0|---------------|2-2-2-2-2-2-2-2|---------------|

G|---------------|---------------|---------------|---------------|
D|---------------|---------------|---------------|---------------|
A|4-4-4-4-4-4-4-4|0-0-0-0-0-0-0-0|2-2-2-2-2-2-2-2|2-2-2-2-2-2-2-2|
E|---------------|---------------|---------------|---------------|

1:29 Pre-Chorus

G|---------------|---------------|---------------|---------------|
D|---------------|---------------|---------------|---------------|
A|---------------|0-0-0-0-0-0-0-0|---------------|2-2-2-2-2-2-2-2|
E|0-0-0-0-0-0-0-0|---------------|0-0-0-0-0-0-0-0|---------------|

G|---------------|---------------|---------------|---------------|
D|---------------|---------------|---------------|---------------|
A|4-4-4-4-4-4-4-4|0-0-0-0-0-0-0-0|---------------|---------------|
E|---------------|---------------|2-2-2-2-2-2-2-2|2-2-2-2-2-2-2-2|

G|---------------|---------------|
D|---------------|---------------|
A|2-2-2-2-2-2-2-2|2-2-2-2-2-2-2-2|
E|---------------|---------------|

1:47 Chorus 2

G|---------------|---------------|---------------|---------------|
D|---------------|---------------|---------------|---------------|
A|---------------|0-0-0-0-0-0-0-0|---------------|2-2-2-2-2-2-2-2|
E|0-0-0-0-0-0-0-0|---------------|0-0-0-0-0-0-0-0|---------------|

G|---------------|---------------|---------------|---------------|
D|---------------|---------------|---------------|---------------|
A|---------------|0-0-0-0-0-0-0-0|2-2-2-2-2-2-2-2|2-2-2-2-2-2-2-2|
E|0-0-0-0-0-0-0-0|---------------|---------------|---------------|

2:02 Bridge

G|---------------|---------------|---------------|---------------|
D|---------------|---------------|---------------|---------------|
A|---------------|---------------|0-0-0-0-0-0-0-0|0-0-0-0-0-0-0-0|
E|4-4-4-4-4-4-4-4|4-4-4-4-4-4-4-4|---------------|---------------|

G|---------------|---------------|---------------|---------------|
D|---------------|---------------|---------------|---------------|
A|4-4-4-4-4-4-4-4|2-2-2-2-2-2-2-2|---------------|0-0-0-0-2-2-2-2|
E|---------------|---------------|2-2-2-2-2-2-2-2|---------------|

G|---------------|---------------|
D|---------------|---------------|
A|0r-X-X-0-0r----|2r-X-X-2-2r----|
E|---------------|---------------|

2:21 Guitar Solo (2x)

G|---------------|---------------|---------------|---------------|
D|---------------|---------------|---------------|---------------|
A|---------------|---------------|4-4-4-4-4-4-4-4|---------------|
E|0-0-0-0-0-0-0-0|4-4-4-4-4-4-4-4|---------------|4-4-4-4-4-4-4-4|

G|---------------|---------------|---------------|---------------|
D|---------------|---------------|---------------|---------------|
A|0-0-0-0-0-0-0-0|---------------|2-2-2-2-2-2-2-2|2-2-2-2-2-2-2-2|
E|---------------|0-0-0-0-0-0-0-0|---------------|---------------|

2:50 Pre-Chorus (Start)

G|---------------|
D|---------------|
A|---------------|
E|4r-------------|

3:05 Pre-Chourus (End)

G|---------------|---------------|
D|---------------|---------------|
A|0r-X-X-0-0r----|2r-X-X-2-2r----|
E|---------------|---------------|

3:09 Chorus 3

G|---------------|---------------|---------------|---------------|
D|---------------|---------------|---------------|---------------|
A|---------------|0-0-0-0-0-0-0-0|---------------|2-2-2-2-2-2-2-2|
E|0-0-0-0-0-0-0-0|---------------|0-0-0-0-0-0-0-0|---------------|

G|---------------|---------------|---------------|---------------|
D|---------------|---------------|---------------|---------------|
A|---------------|0-0-0-0-0-0-0-0|2-2-2-2-2-2-2-2|2-2-2-2-2-2-2-2|
E|0-0-0-0-0-0-0-0|---------------|---------------|---------------|

G|---------------|---------------|---------------|---------------|
D|---------------|---------------|---------------|---------------|
A|---------------|0-0-0-0-0-0-0-0|---------------|2-2-2-2-2-2-2-2|
E|0-0-0-0-0-0-0-0|---------------|0-0-0-0-0-0-0-0|---------------|

G|---------------|---------------|---------------|---------------|
D|---------------|---------------|---------------|---------------|
A|---------------|0-0-0-0-0-0-0-0|---------------|---------------|
E|0-0-0-0-0-0-0-0|---------------|2-2-2-2-2-2-2-2|2-2-2-2-2-2-2-2|

G|---------------|---------------|
D|---------------|---------------|
A|2-2-2-2-2-2-2-2|2-2-2-2-2-2-2-2|
E|---------------|---------------|

G|---------------|---------------|---------------|---------------|
D|---------------|---------------|---------------|---------------|
A|---------------|0-0-0-0-0-0-0-0|---------------|2-2-2-2-2-2-2-2|
E|0-0-0-0-0-0-0-0|---------------|0-0-0-0-0-0-0-0|---------------|

G|---------------|---------------|---------------|---------------|
D|---------------|---------------|---------------|---------------|
A|---------------|0-0-0-0-0-0-0-0|2-2-2-2-2-2-2-2|2-2-2-2-2-2-2-2|
E|0-0-0-0-0-0-0-0|---------------|---------------|---------------|

G|---------------|---------------|---------------|---------------|
D|---------------|---------------|---------------|---------------|
A|---------------|0-0-0-0-0-0-0-0|---------------|2-2-2-2-2-2-2-2|
E|0-0-0-0-0-0-0-0|---------------|0-0-0-0-0-0-0-0|---------------|

G|---------------|---------------|---------------|---------------|
D|---------------|---------------|---------------|---------------|
A|---------------|0-0-0-0-0-0-0-0|2-2-2-2-2-2-2-2|2-2-2-2-2-2-2-2|
E|0-0-0-0-0-0-0-0|---------------|---------------|---------------|
comments
We did not receive enough feedback on this tab! Please rate:
print report bad tab
1 2 3 4 5
I want to post or [tab]
guest
You may want to rate the tab now too:
select rating
Please do not post tabs as comments. Select "correction" instead!