Oops, an error
Loading. Please wait.

Freunde Bass Tab

version 1
version 1

Whole song

Interactive

761 views 18 this week
no commentswrite comment
1 2 3 4 5
excellent!
x 2
add to favorites
launch autoscroll
font size
0
reset
guitar tuner
Tab Pro tools
  • play this tab
  • loop segment
  • change instrument
  • show fretboard
  • metronome
Autoscroll
slow
fast
+/-
esc
set tempo
stop
Contributor
Difficulty
novice
Freunde - Die Toten Hosen

Standart Tuning (EADG)
-------------------------

Short Drum Intro

0:05 Verse 1 (6x)

G|---------------|---------------|---------------|---------------|
D|---------------|---------------|---------------|---------------|
A|0-0-0-0-0-0-0-0|---------------|---------------|5-5-5-5-5-5-5-5|
E|---------------|0-0-0-0-0-0-0-0|3-3-3-3-3-3-3-3|---------------|

1:01 Chorus (2x)

G|---------------|---------------|---------------|---------------|
D|---------------|---------------|---------------|---------------|
A|---------------|---------------|5-5-5-5-5-5-5-5|3-3-3-3-3-3-3-3|
E|0-0-0-0-0-0-0-0|3-3-3-3-3-3-3-3|---------------|---------------|

1:20 Pre-Verse (1x)

G|---------------|---------------|
D|---------------|---------------|
A|0-0-0-0-0-0-0-0|0-0-0-0-0-0-0-0|
E|---------------|---------------|

1:25 Verse 2 (3x)

G|---------------|---------------|---------------|---------------|
D|---------------|---------------|---------------|---------------|
A|0-0-0-0-0-0-0-0|---------------|---------------|---------------|
E|---------------|0-0-0-0-0-0-0-0|3-3-3-3-3-3-3-3|5-5-5-5-5-5-5-5|

1:53 Chorus (2x)

G|---------------|---------------|---------------|---------------|
D|---------------|---------------|---------------|---------------|
A|---------------|---------------|5-5-5-5-5-5-5-5|3-3-3-3-3-3-3-3|
E|0-0-0-0-0-0-0-0|3-3-3-3-3-3-3-3|---------------|---------------|

2:12 Guitar Solo (3x) (Same as Verse 1)

G|---------------|---------------|---------------|---------------|
D|---------------|---------------|---------------|---------------|
A|0-0-0-0-0-0-0-0|---------------|---------------|5-5-5-5-5-5-5-5|
E|---------------|0-0-0-0-0-0-0-0|3-3-3-3-3-3-3-3|---------------|

2:40 Chorus (2x)

G|---------------|---------------|---------------|---------------|
D|---------------|---------------|---------------|---------------|
A|---------------|---------------|5-5-5-5-5-5-5-5|3-3-3-3-3-3-3-3|
E|0-0-0-0-0-0-0-0|3-3-3-3-3-3-3-3|---------------|---------------|

2:59 Bass Solo (3x)

G|---------------|---------------|---------------|---------------|
D|---------------|---------------|---------------|---------------|
A|---------------|---------------|5-5-X-5-5-5-X-5|3-3-X-3-3-3-X-3|
E|0-0-X-0-0-0-X-0|3-3-X-3-3-3-X-3|---------------|---------------|

3:27 Bass Solo Outro

G|---------------|---------------|---------------|---------------|
D|---------------|---------------|---------------|---------------|
A|---------------|---------------|5-5-5-5-5-5-5-5|3-3-3-3-3-3-3-3|
E|0-0-X-0-0-0-X-0|3-3-X-3-3-3-X-3|---------------|---------------|

3:36 Chorus (2x)

G|---------------|---------------|---------------|---------------|
D|---------------|---------------|---------------|---------------|
A|---------------|---------------|5-5-5-5-5-5-5-5|3-3-3-3-3-3-3-3|
E|0-0-0-0-0-0-0-0|3-3-3-3-3-3-3-3|---------------|---------------|
comments
We did not receive enough feedback on this tab! Please rate:
print report bad tab
1 2 3 4 5
I want to post or [tab]
guest
You may want to rate the tab now too:
select rating
Please do not post tabs as comments. Select "correction" instead!