Oops, an error
Loading. Please wait.

Unter Den Wolken chords

version 2
version 2

Whole song

Interactive

4,978 views 141 this week
2 commentsread comments
1 2 3 4 5
x 7
add to favorites
×
Save as Personal and add changes to this tab that will be seen only by you. Learn more ›
×
You can save this tab as Personal to edit and correct it or add notes. All changes will be seen only by you. Learn more »
launch autoscroll
font size
0
reset
transpose
0
reset
simplify chords
display chords
guitar tuner
edit
Autoscroll
slow
fast
+/-
esc
set tempo
stop
Strumming
There is no strumming pattern for this song yet. and get +5 IQ
Anm.: In jedem Refrain und im Outro wird über die Akkorde D und B das "Riff 1" gespielt (s.u.)

[Intro]

Gsus4 G Gsus2 G

C Em G D
C Em G D 


[Verse 1]
       C              Em
Schöne Grüße von hier unten
       G            D
Zu den Himmelhunden rauf
    C               Em
Wir halten hier die Stellung
     G                D
Sind längst nicht abgetaucht
    C                   Em
Die Welt steht grad auf ihrem Kopf
    G               D
Der Wind hat sich gedreht
    C               Em               G     D
Ein grauer Schatten liegt auf unserm Weg


[Chorus]
          Em     Bm
Unter den Wolken
               C                G
Wird's mit der Freiheit langsam schwer
                  Am       Em
Wenn wir hier und heute
         D             B
Alle wie betäubt sind
          Em        Bm
Unter den Wolken
             C              G      
Gibt's keine Starterlaubnis mehr
            Am         Em
Für all die Träume
          D          B 
All unsre Träume

   Riff 1:
       D                 B
   D#|-----------------|---------------------------|
   A#|-----------------|---------------------------|
   F#|-----------------|---------------------------|
   C#|-0---4p0-5---4p0-|---------------------------|
   G#|-----------------|-2-------------------------|
   D#|-----------------|---------------------------|


[Interlude]

C Em G D
C Em G D 


[Strophe 2]
   C                Em
Es schüttet wie aus Eimern
       G                 D
Klitschnass von Kopf bis Fuß
    C                Em
Wir laufen durch die Pfütze
   G                D
Benzin klebt an den Schuh'n.
    C               Em
Und ein, zwei Sonnenstrahlen
G                 D
Bahnen sich ihren Weg
          C                Em
Aus einem kleinen Hoffnungsschimmer
         G               D
Kann das größte Licht entsteh'n


[Chorus]
          Em      Bm
Unter den Wolken
              C                   G
Geben wir die Freiheit noch nicht her
             Am      Em
Weil sie uns heute
        D         B
Alles bedeutet
          Em      Bm
Unter den Wolken
               C                 G
Machen wir uns selbst ein Lichtermeer
            Am        Em
Aus all den Träumen
           D         B 
Aus unsern Träumen

   Riff 1:
       D                 B
   D#|-----------------|---------------------------|
   A#|-----------------|---------------------------|
   F#|-----------------|---------------------------|
   C#|-0---4p0-5---4p0-|---------------------------|
   G#|-----------------|-2-------------------------|
   D#|-----------------|---------------------------|


[Solo]
Am C Em D
Am C B

[Chorus]
          Em      Bm
Unter den Wolken
              C                   G
Geben wir die Freiheit noch nicht her
             Am      Em
Weil sie uns heute
        D         B 
Alles bedeutet
          Em      Bm
Unter den Wolken
               C                 G
Machen wir uns selbst ein Lichtermeer
            Am        Em
Aus all den Träumen
           D         B 
Aus unsern Träumen

   Riff 1:
       D                 B
   D#|-----------------|---------------------------|
   A#|-----------------|---------------------------|
   F#|-----------------|---------------------------|
   C#|-0---4p0-5---4p0-|---------------------------|
   G#|-----------------|-2-------------------------|
   D#|-----------------|---------------------------|


[Outro]
         Em        Bm
Und alle leuchten.
         C         G
Und alle leuchten.
               Am         Em
Schau, wie sie leuchten!
        D          B 
Wie sie leuchten!

   Riff 1:
       D                 B
   D#|-----------------|---------------------------|
   A#|-----------------|---------------------------|
   F#|-----------------|---------------------------|
   C#|-0---4p0-5---4p0-|---------------------------|
   G#|-----------------|-2-------------------------|
   D#|-----------------|---------------------------|


Em Bm C Em

************************************


| p   Pull-off


************************************

            
            
Suggest correction
Creating personal tab
Creating personal tab
You can edit any tab online and save it as your Personal.

You can edit, replace or remove any tab part or add personal notes – all changes will be seen only by you.

Personal tabs can be accessed anytime from any device, even offline.
Learn more »
comments
print report bad tab
2 comments total.
0 reply
suas 10 Apr 12, 2017 06:00 AM

👍

0 reply
DTJPlay 1,623 May 22, 2017 02:30 AM

Here is our Tutorial:

https://www.youtube.com/watch?v=ndXip_KBDQE&t=17s

Have Fun!

guest
You may want to rate the tab now too:
select rating
Wanna post a correction for this tab? Suggest correction