Oops, an error
Loading. Please wait.

Wie Viele Jahre Hasta La Muerte chords

version 2
version 2

Whole song

592 views 27 this week
1 commentread comment
1 2 3 4 5
1 last vote to show rating
add to favorites
×
Save as Personal and add changes to this tab that will be seen only by you. Learn more ›
×
You can save this tab as Personal to edit and correct it or add notes. All changes will be seen only by you. Learn more »
launch autoscroll
font size
0
reset
transpose
0
reset
display chords
guitar tuner
edit
Autoscroll
slow
fast
+/-
esc
set tempo
stop
Strumming
There is no strumming pattern for this song yet. and get +5 IQ
[Intro]
e|-3-3-----5-5-----|-6-6-----8-8-----|
H|-----3-3-----3-3-|-----3-3-----3-3-|
G|-----------------|-----------------|
D|-----------------|-----------------|
A|-----------------|-----------------|
E|-----------------|-----------------|5x

e|-3-3-----5-5-----|-6-6-----8-8-10|
H|-----3-3-----3-3-|-----3-3-------|
G|-----------------|---------------|
D|-----------------|---------------|
A|-----------------|---------------|
E|-----------------|---------------|1x


e|-3-3-3-3-3-3-3-3-|-5-5-5-5-6-6-5-5|
H|-3-3-3-3-3-3-3-3-|-3-3-3-3-3-3-3-3|
G|-----------------|----------------|
D|-----------------|----------------|
A|-----------------|----------------|
E|-----------------|----------------|2x

[Strophe 1]
    Gm                F              Eb                      Bb
Wir steh'n in unserem Proberaum, die Decke feucht, der Boden nass
    Gm            F           Eb                Eb
Eierpappen an den Wänden, für Groupies ist kein Platz
       Gm           F                      Cm          Gm
Breiti feiert heut' Geburtstag, ein junger Mann von 20 Jahren
    Bb                    F              Eb             Eb
Als Geschenk zwei Kisten Altbier und 'ne kleine Flasche Schnaps

[Pre-Refrain]
         Cm
Und dann spielen wir unsere Lieder
         Gm                Bb
Jeder so Laut , wie er nur kann
    Eb
Und wenn man nicht genau hinhört
      D
Hört sich's schon ganz gut an

[Refrain]
         Bb                      F
Wie viel Jahre kann das so weitergehen?
         Cm                       Gm            F
Wie viel Jahre, wie viel Zeit die für uns übrig ist?
           Bb                   F
Ein halbes Leben sind wir schon unterwegs
          Cm                            Bb          F
„Hasta La Muerte”, das haben wir uns in uns're Haut geritzt

[Intro]
e|-3-3-----5-5-----|-6-6-----8-8-----|
H|-----3-3-----3-3-|-----3-3-----3-3-|
G|-----------------|-----------------|
D|-----------------|-----------------|
A|-----------------|-----------------|
E|-----------------|-----------------|2x

e|-3-3-3-3-3-3-3-3-|-5-5-5-5-6-6-5-5|
H|-3-3-3-3-3-3-3-3-|-3-3-3-3-3-3-3-3|
G|-----------------|----------------|
D|-----------------|----------------|
A|-----------------|----------------|
E|-----------------|----------------|1x

[Strophe 2]
    Gm                F              Eb             Bb
Wir stehen im Zimmer 107, die Decke weiß, der Boden blank
    Gm            F           Eb
Kunst hängt an den Wänden, zwei Groupies sind im Schrank
       Cm                                 Gm          Bb
Breiti feiert Heut Geburtstag, ein Junger Mann von 40 Jahren
    Eb                                    D
Als Geschenk zwei Kisten Schampus und 'ne kleine Flasche Schnaps

[Refrain]
         Bb                      F
Wie viel Jahre kann das so weitergehen?
         Cm                       Gm            F
Wie viel Jahre, wie viel Zeit die für uns übrig ist?
           Bb                   F
Ein halbes Leben sind wir schon unterwegs
          Cm                            Bb          F
„Hasta La Muerte”, das haben wir uns in uns're Haut geritzt

[Bridge]
    Cm               Ab              Eb                 Bb
Und heut' ist wieder Geburtstag, wir stehen vor Breitis Tür
           Cm             Ab                 Eb                      Bb
Haben zwei Kisten bei mit Biosnacks – Breiti verträgt nichts and'res mehr
      Cm   Ab         Eb   Bb         Cm   Ab     Bb
Happy birthday, happy birthday, happy birthday to you!

[Refrain]
         Bb                      F
Wie viel Jahre kann das so weitergehen?
         Cm                       Gm            F
Wie viel Jahre, wie viel Zeit die für uns übrig ist?
           Bb                   F
Ein halbes Leben sind wir schon unterwegs
          Cm                            Bb          F
„Hasta La Muerte”, das haben wir uns in uns're Haut geritzt

[Outro]
So wird es weitergehen
e|-3-3-----5-5-----|-6-6-----8-8-----|
H|-----3-3-----3-3-|-----3-3-----3-3-|
G|-----------------|-----------------|
D|-----------------|-----------------|
A|-----------------|-----------------|
E|-----------------|-----------------|3x

So wird es weitergehen
e|-3-3-----5-5-----|-6-6-----8-8-10|
H|-----3-3-----3-3-|-----3-3-------|
G|-----------------|---------------|
D|-----------------|---------------|
A|-----------------|---------------|
E|-----------------|---------------|

            
            
Suggest correction
Creating personal tab
Creating personal tab
You can edit any tab online and save it as your Personal.

You can edit, replace or remove any tab part or add personal notes – all changes will be seen only by you.

Personal tabs can be accessed anytime from any device, even offline.
Learn more »
Give kudos to tab author, rate the tab!
1 2 3 4 5
comments
print report bad tab
1 comment total.
+1 reply
Campi19951 158 Sep 01, 2017 10:10 AM

Endlich nen gescheiter "Wie viele Jahre" Tab, danke!

guest
You may want to rate the tab now too:
select rating
Wanna post a correction for this tab? Suggest correction