Oops, an error
Loading. Please wait.

Courage To Be Tab

274 views 1 this week
1 commentread comment
1 2 3 4 5
please rate
add to favorites
launch autoscroll
font size
0
reset
how to read this tab
guitar tuner
Autoscroll
slow
fast
+/-
esc
set tempo
stop
Help us to improve Ultimate-Guitar.com Take our survey!
×
Author
Schecter Man 6,963
Band: Diecast
Song: Courage To Be

Tabber: John Cukras
Email: riffreaper@yahoo.com

Tuning: C G C F A D

Riff 1: Guitar 1                             
D-------------------------------------------|
A-4-6666-4-6666-4-6666-4-666-------7-6------|
F-----------------------------6-5-----------|
C-------------------------------------------| x6
G-------------------------------------------|
C-------------------------------------------|

       Guitar 2                                                         
D-----------------------------------------------------------------------|
A-----------------------------------------------------------------------|
F---------------------------9----9--------------------------------------|
C-----------------------------------------------------------------------|
G--1-------------------1-------------------------------------------000--|
C--1--00-00-00--x's 8--1-00---00---00--x's 4---000000000-00 x's 4--000--|
pm    .. .. ..           ..   ..   ..          ......... ..        ...

Riff 2:
D-------------------------------------------------|
A-------------------------------------------------|
F-------------------------------------------------|
C-------------------------------------------------| x4
G-000-00-000-4/5---------000-00-000-5/3-----------|
C-000-00-000-4/5- x's 3--000-00-000-5/3-----------|
pm... .. .. ..           ... .. ...

Riff 3:
D--------17-16-14---------------------------------------------------------|
A-------------------------------------------------------------------------|
F-------------------------------------------------------------------------|
C-------------------------------------------------------------------------| x4
G-0------------------9-9/12-13-13/11---------0------9-9/12-13-13/11-------|
C-0-000--------------9-9/12-13-13/11 x's 4---0-000--9-9/12-13-13/11-------|
pm  ...                                        ...

Riff 2 x's 2

Riff 3

Riff 4:
D----------------------------------------------------------------------------------|
A-----------------------------------------------12-121212-15-10-101010-9-8-7-------|
F---------------9-999-9-9-9-12-121212-12-121-12------------------------------x's 2-|
C----------------------------------------------------------------------------------|
G-----3/1/3------------------------------------------------------------------------|
C-000-3/1/3------------------------------------------------------------------------|
pm...

Riff 4 continued:
D---------------------------10-101010-12-7-777-7--------------|
A------------------------------------------------9-8-7--------|
F-9-999-9-9-9-12-121212-12------------------------------------|
C-------------------------------------------------------------|
G-------------------------------------------------------------|
C-----------------------------------------------------  x's 2-|

Riff 5: begins with 4 notes at end of solo type thing.
D-----------------------------------------|
A-----------------------------------------|
F-----------------------------------------|
C---------------------------777-999-------|
G-----------00000-0000-0000-555-777-------|
C-0-0-0-0---00000-0000-0000-------- x's 8-|
pm. . . .   ..... .... ....

Riff 6:
D----------------------------------------------------------------------------------|
A----------------------------------------------------------------------------------|
F----------------------------------------------------------------------------------|
C-------6---5--------7--------9-8----------------6--5-------7--------9-8-----------|
G-0-9-6-4---3--------5--------7-6------------9-6-4--3-------5--------7-6-----------|
C-0-9-6-------00000----00000------000000000--9-6------00000---000000-----000000000-|
pm            .....    .....      .........           .....   ......     .........

Riff 7:
D--------------------------------------------------------|
A--------------------------------------------------------|
F--------------------------------------------------------|
C-8888---------6666666--5555-7777-9/8--------------------|
G-6666-999-666-4444444--3333-5555-7/6--------------------|
C------999-666------------------------00-00-00-00  x's 4-|
pm                                    .. .. .. ..

Riff 5 x's 6
Suggest correction new What's this?
You can suggest a correction to this tab. Community and Mods will review your correction and vote to approve or reject it.
comments
We did not receive enough feedback on this tab! Please rate:
print report bad tab
1 2 3 4 5
1 comment total.
0 reply
kn!!led 93 wrote on September 24 2009, 10:33 am

will some1 please tab out THE COLDEST RAIN

guest
You may want to rate the tab now too:
select rating
Please do not post tabs as comments. Select "correction" instead!