Oops, an error
Loading. Please wait.

Damage Path Tab

version 1
version 1

Whole song

Interactive

156 views 1 this week
no commentswrite comment
1 2 3 4 5
please rate
add to favorites
launch autoscroll
font size
0
reset
how to read this tab
guitar tuner
Autoscroll
slow
fast
+/-
esc
set tempo
stop
Help us to improve Ultimate-Guitar.com Take our survey!
×
Band: Diecast
Song: Damage Path

Tabber: John Cukras
AIM: sanguinarylord

Tuning: C G C F A D

Riff 1:    Part A                    Part B        Part B other guitar.
D---------------------------------|-------------|----------
A---------------------------------|-------------|----------
F---------------------------------|---8----7----|----------
C---------------------------------|-9---8----7--|-5-7-6-6-5
G-0-1-0-2-1-0-3-0-1-0-1-2-3-------|-------------|-3-5-4-4-3
C-0-1-0-2-1-0-3-0-1-0-1-2-3 x's 4-|-------------|----------

Riff 1: part A x's 2 , Part B

Riff 1: Part A , Part B , Part A, Part B x's 4

Riff 2: (10's 11's 12's)  Part A               1st time     2nd time          3rd Time
D-------------------------------------------|-------------|----------777777--|-------------
A-------------------------------------------|-------------|----------888888--|-------------
F-------------------------------------------|-------------|------------------|-------------
C-------------------------------------------|-------------|------------------|-------------
G-00-2-1-7-6-5-00-2-1-12-11-10-00-2-1-7-6-5-|-0000000000--|-00-2-1-----------|-00-2-1-1-1-1
C-00-2-1-7-6-5-00-2-1-12-11-10-00-2-1-7-6-5-|-0000000000--|-00-2-1-----------|-00-2-1-1-1-1
pm..           ..              ..             ..........    ..                 ..

Riff 3:
D------------------------------------------------
A------------------------------------------------
F------------------------------------------------
C------------------------------------------------
G-11111-22222-77777-666666--------0-0-0-0-0-0-543
C-11111-22222-77777-666666 x's 4 -0-0-0-0-0-0-543
pm                                . . . . . . ...

Riff 2: Part A (with 2nd time end) x's 2, Part A (with 3rd time end)

Riff 3 as is

Riff 4:  Part A           Part B
D-------------------|------------------------------------------------------------------------
A-------------------|------------------------------------------------------------------------
F-------------------|------------------------------------------------------------------------
C-------------------|--------9/7-8/6-7/5--------9-7-6-8-9-------9/7-8/6-7/5-------9-7-5------
G-1--2--5-4-3-------|--------7/5-6/4-5/3--------7-5-4-6-7-------7/5-6/4-5/3-------7-5-3-3-2-1
C-1--2--5-4-3 x's 4-|--0000---------------0000-------------000---------------000--------3-2-1 x's 4
pm      . . .          ....               ....             ...               ...

Riff 5:          Part A                             Part B
D-----------------------------------------------|----------------
A-----------------------------------------------|----------------
F-------14-12-----------------------------------|----------------
C----12-------14-13-12--------------------------|----------------
G-00---------------------------00-1/5-5---------|--1--1--00-1/5-5
C-00------------------ x's 3 --00-1/5-5   x's 4-|--1--1--00-1/5-5  x's 4
pm..                           ..                        ..

Riff 4: Part B once

Riff 5: Part A x's 2, Part B x's 2

Outro:
D--------------------
A--------------------
F--------------------
C--------------------
G---------------1/5-5
C-0000000000000-1/5-5  x's 2
pm.............
Suggest correction
Give kudos to tab author, rate the tab!
1 2 3 4 5
comments
print report bad tab
guest
You may want to rate the tab now too:
select rating
Please do not post tabs as comments. Select "correction" instead!