Oops, an error
Loading. Please wait.

Desensitized Tab

208 views 1 this week
no commentswrite comment
1 2 3 4 5
please rate
add to favorites
launch autoscroll
font size
0
reset
how to read this tab
guitar tuner
Autoscroll
slow
fast
+/-
esc
set tempo
stop
Help us to improve Ultimate-Guitar.com Take our survey!
×
Band: DIECAST
Album:Day of Reckoning
Song: Desensitized

Transcribed by:        Chris Humeniuk
Email: father_death_666@hotmail.com

Tuning: (C G C)
strings 1-5 - 1 step down
string    6 - 2 steps down

Keys:
 / \ - slide
 ___ - palm mute
  b  - bend
  h  - hammer on


INTRO:

|-----------------|     |---------------|
|-----------------|     |---------------|
|-----------------|     |-6-5-----------|
|-8\7-------------|     |-6-5-6---------|
|-6\5-3-5-6-5-3-5-|     |-4-3-6---------|
|-----3-5-6-5-3-5-| 3x  |-----6--000000-| 3x
      ___________                ______

|-----------------|     |-------------|
|-----------------|     |-------------|
|-----------------|     |-6-5---------|
|-8\7-------------|     |-6-5-6-5-----|
|-6\5-3-5-6-5-3-5-|     |-4-3-6-5-----|
|-----3-5-6-5-3-5-| 3x  |-----6-5-3-5-|
      ___________                 ___


VERSE:

|---------------|     |--------------|
|---------------|     |--------------|
|---------------|     |--------------|
|---------3-2-3-|     |--------5-3-2-|
|---------3-2-3-|     |--------5-3-2-|
|-0-0--00-3-2-3-| 3x  |0-0--00-5-3-2-| 3x
  _______              _______

|---------------|     |----------------|
|---------------|     |----------------|
|---------------|     |----------------|
|---------3-2-3-|     |--------3-2-3-0-|
|---------3-2-3-|     |--------3-2-3-0-|
|-0-0--00-3-2-3-| 3x  |0-0--00-3-2-3-0-|
  _______              _______

(Gtr 2 comes in w/this every so often)
|--------|
|-13/15--|
|--------|
|--------|
|--------|
|--------|


CHORUS:

|-----------------|     |---------------|
|-----------------|     |---------------|
|-----------------|     |-6-5-----------|
|-8\7-------------|     |-6-5-6---------|
|-6\5-3-5-6-5-3-5-|     |-4-3-6---------|
|-----3-5-6-5-3-5-| 3x  |-----6--000000-|
      ___________                ______

|-----------------|     |-------------|
|-----------------|     |-------------|
|-----------------|     |-6-5---------|
|-8\7-------------|     |-6-5-6-5-----|
|-6\5-3-5-6-5-3-5-|     |-4-3-6-5-----|
|-----3-5-6-5-3-5-| 3x  |-----6-5-3-5-|
      ___________                 ___


VERSE


INTRO


INTERLUDE:

|------------------------------------------------------------|
|------------------------------------------------------------|
|----------------------------------------------5-------------|
|----------------------------------------------5-------------|
|-----------5b----------------------------3b---3-------------|
|-0-0-0----------0-0-0-----6b---0-0-0----------3-------------|
  _____          _____          _____

|------------------------------------------------------------|
|------------------------------------------------------------|
|------------------------------------------------------------|
|------------------------------------------------------------|
|-----------5b----------------------------3b-----------------|
|-0-0-0----------0-0-0-----6b---0-0-0----------0-0-0---0-3-0-| 3x
  _____          _____          _____          _____________

|------------------------------------------------------------|
|------------------------------------------------------------|
|------------------------------------------------------------|
|------------------------------------------------------------|
|-----------5b------------(6b)------------3b-----------------|
|-0-0-0-0-0------0-0-0-----6b---0-0-0----------0-0-0---0-3-0-|
  _________      _____          _____          _____________

|------------------------------------------------------------|
|------------------------------------------------------------|
|------------------------------------------------------------|
|------------------------------------------------------------|
|-----------5b------------(6b)------------3b-----------------|
|-0-0-0----------0-0-0-----6b---0-0-0----------0-0-0---0-3-0-|
  _____          _____          _____          _____________

|------------------------------------------------------------|
|------------------------------------------------------------|
|------------------------------------------------------------|
|------------------------------------------------------------|
|-----------5b----------------------------3b-----------------|
|-0-0-0----------0-0-0-----6b---0-0-0----------0-0-0---0-3-0-|
  _____          _____          _____          _____________

|-----------------------------------|
|-----------------------------------|
|-----------------------------------|
|-----------------------------------|
|-----------5b----------------------|
|-0-0-0----------0-0-0-----6b---0-0-|
  _____          _____          ___


CHORUS:

|-----------------|     |---------------|
|-----------------|     |---------------|
|-----------------|     |-6-5-----------|
|-8\7-------------|     |-6-5-6---------|
|-6\5-3-5-6-5-3-5-|     |-4-3-6---------|
|-----3-5-6-5-3-5-| 3x  |-----6--000000-| 3x
      ___________                ______


|-------|
|-------|
|-6-6-6-|
|-6-6-6-|
|-4-4-4-|
|-------|


OUTRO: (fades out)

|----------------|     |-------------|
|----------------|     |-------------|
|----------------|     |-------------|
|-1-0--0-5h6-5\3-|     |---6----6\3--|
|-1-0--0-5h6-5\3-|     |---4----6\3--|
|-1-0--0-5h6-5\3-| 3x  |-0----0-6\3--|
Suggest correction
Give kudos to tab author, rate the tab!
1 2 3 4 5
comments
print report bad tab
guest
You may want to rate the tab now too:
select rating
Please do not post tabs as comments. Select "correction" instead!