Oops, an error
Loading. Please wait.

Disrepair Tab

216 views 1 this week
no commentswrite comment
1 2 3 4 5
please rate
add to favorites
launch autoscroll
font size
0
reset
how to read this tab
guitar tuner
Tab Pro tools
  • play this tab
  • loop segment
  • change instrument
  • show fretboard
  • metronome
×
Best way to learn
"Disrepair"
Autoscroll
slow
fast
+/-
esc
set tempo
stop
Contributor
Band: DIECAST
Album:Day of Reckoning
Song: Disrepair

Transcribed by:        Chris Humeniuk
Email: father_death_666@hotmail.com

Tuning:
strings 1-5 - 1 step down
string    6 - 2 steps down

Keys:
 ___ - palm mute
  p  - pull off
  h  - hammer on
  "  - tremelo pick
 / \ - slide


RIFF A:

|---------------|     |-------------|
|---------------|     |-------------|
|---------------|     |-------------|
|----3p1----1h2-|     |----3-----1--|
|----3p1----1h2-|     |----3-----1--|
|-00-3p1-00-1h2-| 7x  |-00-3--00-1--|
  __     __             __    __

|---------------|
|---------------|
|---------------|
|----3p1----1h2-|
|----3p1----1h2-|
|-00-3p1-00-1h2-| 16x
  __     __


RIFF B:

|-----------------|     |---------------------|
|-----------------|     |---------------------|
|-6"--5"----------|     |-6"--5"--------------|
|-x---x-----------|     |-x---x------3-----1--|
|-4"--3"--4-3-4-3-|     |-4"--3"-----3-----1--|
|---------6-5-6-5-| 3x  |---------00-3--00-1--|
          _______                 __    __


RIFF A:

|---------------|     |----------|
|---------------|     |----------|
|---------------|     |----------|
|----3p1----1h2-|     |----3p1---|
|----3p1----1h2-|     |----3p1---|
|-00-3p1-00-1h2-| 7x  |-00-3p1-0-|
  __     __             __     _


RIFF C:

|--------------------------------------------------------------------
|--------------------------------------------------------------------
|--------------------------------------------------------------------
|---6-7----------------------6-7----------------------6-7------------
|---4-5----------------------4-5----------------------4-5------------
|-0-6-7-0-0--0-0-0--0-0-0--0-6-7-0-0--0-0-0--0-0-0--0-6-7-0-0--0-0-0-
  _     ____________________     ____________________     __________

 ------------------------------|     |------------------|
 ------------------------------|     |------------------|
 ------------------------------|     |------------------|
 -------------5--5--5-5--6--6--|     |---6-7------------|
 -------------3--3--3-3--6--6--|     |---4-5------------|
 -0-0-0--0-0--5--5--5-5--6--6--| 3x  |-0-6-7------------|
  __________                           _


RIFF D:

|--------------------------------------------------------------|
|--------------------------------------------------------------|
|--------------------------------------------------------------|
|--------------------------------------------------------------|
|-----5-----5-3-3-----5-----5-6-6-----5-----5-3-3-----5-----5--|
|-000---0-0-------000---0-0-------000---0-0-------000----8-----| 5x
  ___   ___       ___   ___       ___   ___       ___

|-------------------------------------------------|
|-------------------------------------------------|
|-------------------------------------------------|
|-------------------------------------------------|
|-----5-----5-3-3-----5-----5-6-6-----5-----5-3-3-|
|-000---0-0-------000---0-0-------000---0-0-------|
  ___   ___       ___   ___       ___   ___


RIFF E:

|--------------------------------------------------------------|
|--------------------------------------------------------------|
|--------------------------------------------------------------|
|-----0-----5-5-5-----0-----8-8-8-----0-----5-5-5-----7--3--7--|
|-----0-----3-3-3-----0-----6-6-6-----0-----3-3-3-----5--1--5--|
|-0-0---0-0-5-5-5-0-0---0-0-8-8-8-0-0---0-0-5-5-5-0-0-7--3--7--| 4x
  ___   ___       ___   ___       ___   ___       ___


RIFF F:

|--------------------------------------------------------------|
|--------------------------------------------------------------|
|--------------------------------------------------------------|
|-----7-----7-5-5-----7-----7-8-8-----7-----7-5-5-----7--3--7--|
|-----5-----5-3-3-----5-----5-6-6-----5-----5-3-3-----5--1--5--|
|-000---0-0-------000---0-0-------000---0-0-------000----------| 2x
  ___   ___       ___   ___       ___   ___       ___


RIFF G:

|----------------------------------------------------------|
|----------------------------------------------------------|
|----------------------------------------------------------|
|----------------------------------------------------------|
|-0-0-----------0-0-----------0-0-----------1/4-4\3-3/6-6\-|
|-0-0--00000000-0-0--00000000-0-0--00000000----------------| 6x
  _________________________________________


RIFF H:

|---------------------------------------------|
|---------------------------------------------|
|---------------------------------------------|
|-0--3--1--4--1-1---------------------------3-|
|-0--3--1--4--1-1-------3h5-----4p3---------3-|
|-0--3--1--4--1-1-0-0-0-----0-0-----0-6p5-0-3-| 4x
                  _____     ___     _     _


RIFF G - 4x


OUTRO:

|-----------------|     |---------|
|-----------------|     |---------|
|-----------------|     |---------|
|-0--3--1--4------|     |-0--3--1-|
|-0--3--1--4--0-0-|     |-0--3--1-|
|-0--3--1--4--0-0-| 3x  |-0--3--1-|
comments
We did not receive enough feedback on this tab! Please rate:
print report bad tab
1 2 3 4 5
I want to post or [tab]
guest
You may want to rate the tab now too:
select rating
Please do not post tabs as comments. Select "correction" instead!