Oops, an error
Loading. Please wait.

Final Word Tab

105 views 1 this week
no commentswrite comment
1 2 3 4 5
please rate
add to favorites
launch autoscroll
font size
0
reset
how to read this tab
guitar tuner
Autoscroll
slow
fast
+/-
esc
set tempo
stop
Help us to improve Ultimate-Guitar.com Take our survey!
×
Author
Band: Diecast
Song: Final Word

Tabber: John Cukras
AIM: sanguinarylord

Tuning: C G C F A D

Riff 1: A  Guitar 1  B         Guitar 2
D----------|----------------|-------------------
A----------|----------------|-------------------
F----------|----------------|-------------------
C----------|----------------|-7-9-8-9-10-6-7-8-6 x's 12
G-00-------|-00-0-00--------|-------------------
C-00 x's 4-|-00-0-00 x's 4--|-------------------
pm..              ..

Riff 2:  Part A                       Part B
D------------------------------|-------------------------------------------
A------------------------------|-------------------------------------------
F------------------------------|-------------------------------------------
C------------------------------|-------------------------------------------
G-000-000-000-0-000-2-1--------|---000000000000-2-1---------000000000-0-0-5
C-000-000-000-0-000-2-1 x's 8 -|---000000000000-2-1 x's 3 --000000000-0-0--
pm... ... ...   ...                ............             ......... . .

Riff 3:  Fourth and Fifth time, pm-ing is sped up like this  ^ 
D--------------------------------------------------------------------------------------------------
A--------------------------------------------------------------------------------------------------
F--------------------------------------------------------------------------------------------------
C----------------------------------------3-2-1-----------------------------------------------------
G-000-000-000-0-000--------000-000-000-0---------000-000-000-0-000--------000-000-000-0------------
C-000-000-000-0-000-2-1-2--000-000-000-0---------000-000-000-0-000-2-1-2--000-000-000-0-6-5-4-3-2-1  x's 5
pm... ... ...   ...        ... ... ...           ... ... ...   ...        ... ... ...   

Riff 4:                                            xxxxx  xxxxxx    xxxxxx xxxxxx <-- Possibly pm'ed first 2 times.
D------------------------------------------------|-----------------------------------------------------------------------
A------------------------------------------------|-----------------------------------------------------------------------
F------------------------------------------------|-----------------------------------------------------------------------
C------------------------------------------------|-----------------------------------------------------------------------
G-000-000-000-0-111-4--000-000-000-0-111-2-------|-111111-111111-4--111111-111111-4-2--------111111-11111-4--111111-11111
C-000-000-000-0-111-4--000-000-000-0-111-2 x's 8-|-111111-111111-4--111111-111111-4-2 x's 5--111111-11111-4--111111-11111
pm... ... ... . ...    ... ... ... . ...

Riff 1: Guitar 2 once , Guitar 1 B x's 4

Riff 2: Part B x's 8 (first half x's 7 then next)

Riff 3: 1st/2nd time - Slow pace, 3rd/4th/5th time - fast pace

Riff 5:   Part A
D----------------------|-------------------------|-------------------------------------------------------------------
A----------------------|-------------------------|-------------------------------------------------------------------
F----------------------|-------------------------|-------------------------------------------------------------------
C----------------------|-------------------------|-3-----------3-----------------------------------------------------
G-111111-------1-1-1-1-|--1111-11-11-1111--------|-1-3-2-1-2-3-1-3-2-1-2-3---00000-5-00-8-7-6--------00000-5-00------
C-111111 x's 3-1-1-1-1-|--1111-11-11-1111 x's 8--|---3-2-1-2-3---3-2-1-2-3---00000-5-00-8-7-6 x's 7--00000-5-00-2-1-2
pm             . . . .    .... .. .. ....            . . . . .   . . . . .   .....   ..              .....   ..

Riff 6:
D---------------------------
A---------------------------
F---------------------------
C-3------------------3------
G-1-3-2-1-2-3--------1-3-2-1
C---3-2-1-2-3 x's 3----3-2-1
pm  . . . . .          . . .

Riff 5: part A
Suggest correction
What's this?
You can suggest a correction to this tab. Community and Mods will review your correction and vote to approve or reject it.
comments
We did not receive enough feedback on this tab! Please rate:
print report bad tab
1 2 3 4 5
guest
You may want to rate the tab now too:
select rating
Please do not post tabs as comments. Select "correction" instead!