Oops, an error
Loading. Please wait.

Invent The Truth Tab

79 views 1 this week
no commentswrite comment
1 2 3 4 5
2 more votes to show rating
add to favorites
launch autoscroll
font size
0
reset
how to read this tab
guitar tuner
Autoscroll
slow
fast
+/-
esc
set tempo
stop
Help us to improve Ultimate-Guitar.com Take our survey!
×
Band: DIECAST
Album:Day of Reckoning
Song: Invent the Truth

Transcribed by:        Chris Humeniuk
Email: father_death_666@hotmail.com

Tuning:
strings 1-5 - 1 step down
string    6 - 2 steps down

Keys:
 ___ - palm mute
  p  - pull off
 / \ - slide
  h  - hammer on
  "  - tremelo pick


INTRO:

|---------------------------------------------|     |----------|
|---------------------------------------------|     |----------|
|---------------------------------------------|     |----------|
|-4-------------------------------------------|     |-4--------|
|-2-------------------------------------------|     |-2--------|
|-4--------0-0-0-0--0-0-0-0--0-0-0-0--0-0-000-| 4x  |-4--------|
           __________________________________


RIFF A:

|--------------------------------------------------|
|--------------------------------------------------|
|--------------------------------------------------|
|-0-0-0-0-3p2---3/5---6p5-0-0-0-0-10p0---3h5---1/3-|
|-0-0-0-0-3p2---3/5---6p5-0-0-0-0-10p0---3h5---1/3-|
|-0-0-0-0-3p2-0-3/5-0-6p5-0-0-0-0-10p0-0-3h5-0-1/3-| 2x
              _     _                  _     _


RIFF B:

|------------------------------------------------------------------|
|------------------------------------------------------------------|
|------------------------------------------------------------------|
|-----------------3p2---3/5---6p5-----------------10p0---3h5---1/3-|
|-----------------3p2---3/5---6p5-----------------10p0---3h5---1/3-|
|-000-000-000-000-3p2-0-3/5-0-6p5-000-000-000-000-10p0-0-3h5-0-1/3-| 2x
  _______________     _     _     _______________      _     _


RIFF C:

|----------------------------------------------------------|
|----------------------------------------------------------|
|----------------------------------------------------------|
|----0-----0--3p2---3/5---6p5----0-----0--10p0---3h5---1/3-|
|----0-----0--3p2---3/5---6p5----0-----0--10p0---3h5---1/3-|
|-00-0--00-0--3p2-0-3/5-0-6p5-00-0--00-0--10p0-0-3h5-0-1/3-| 2x
  __    __        _     _     __    __         _     _

(Gtr 1)
|----------------------------------------------------------|
|----------------------------------------------------------|
|----------------------------------------------------------|
|----0-----0--3p2---3/5---6p5----0-----0--10p0---3h5---1/3-|
|----0-----0--3p2---3/5---6p5----0-----0--10p0---3h5---1/3-|
|-00-0--00-0--3p2-0-3/5-0-6p5-00-0--00-0--10p0-0-3h5-0-1/3-|
  __    __        _     _     __    __         _     _

(Gtr 2)
|----------------------------------------------------------|
|----------------------------------------------------------|
|-7---------------------------5-----------8-----------8/10-|
|----------------------------------------------------------|
|----------------------------------------------------------|
|----------------------------------------------------------|

(Gtr 1)
|----------------------------------------------------------|
|----------------------------------------------------------|
|----------------------------------------------------------|
|----0-----0--3p2---3/5---6p5----0-----0--10p0---3h5---1/3-|
|----0-----0--3p2---3/5---6p5----0-----0--10p0---3h5---1/3-|
|-00-0--00-0--3p2-0-3/5-0-6p5-00-0--00-0--10p0-0-3h5-0-1/3-|
  __    __        _     _     __    __         _     _

(Gtr 2)
|-------------------------------------------------------------------|
|-------------------------------------------------------------------|
|-7---------------------------5-----------8-----------8/10-7--------|
|-------------------------------------------------------------------|
|-------------------------------------------------------------------|
|-------------------------------------------------------------------|


RIFF B - 2x


CHORUS:

|------------------------------------------------------------|
|------------------------------------------------------------|
|------------------------------------------------------------|
|-----------------------------------------------------6------|
|-----------------------------------------------------4------|
|-0-1-0-2-0-1-0-2-0-----------0-1-0-----------0-0-2-3-6------| 2x
  ___________________________________________________

|------------------------------------------------------------|
|------------------------------------------------------------|
|--------------------7/8-7/8---------7/8-7/8-----------------|
|-----------------------------------------------------6------|
|--------------------5/6-5/6---------5/6-5/6----------4------|
|-0-1-0-2-0-1-0-2-0-----------0-1-0-----------0-0-2-3-6------| 2x
  _________________           _____           _______


RIFF A - 1x


RIFF B - 2x


RIFF C


RIFF B - 2x


FILL:

|------------------|
|------------------|
|------------------|
|------------------|
|------------------|
|-0000-0000-0000-0-|
  ________________


RIFF D:

|---------------------------------------------------------|
|---------------------------------------------------------|
|---------------------------------------------------------|
|-----------------------------------------------1------4--|
|-----------------------------------------------1------2--|
|-0-0-0--0-0000-0-0-0--0-0000-0-0-0--0-0000-0-0-1--0-0-4--| 6x
  _____________________________________________    ___


BRIDGE:

|--------------------------------------------------|
|--------------------------------------------------|
|--------------------------------------------------|
|-0---------3---------6-------6--1--0--------------|
|-0---------3---------4-------6--1--0--------------|
|-0------00-3------00-6----00-6--1--0------2-3-2-0-| 4x
         __        __      __              _______

(Gtr 1)
|--------------------------------------------------|
|--------------------------------------------------|
|--------------------------------------------------|
|-0---------3---------6-------6--1--0--------------|
|-0---------3---------4-------6--1--0--------------|
|-0------00-3------00-6----00-6--1--0------2-3-2-0-|
         __        __      __              _______

(Gtr 2 - comes in w/pick scrape)
|--------------------------------------------------|
|--------------------------------------------------|
|-7"--------5"--------6"------8"----7"-------------|
|-x---------x---------x-------x-----x--------------|
|-5"--------3"--------4"------6"----5"-------------|
|--------------------------------------------------| 3x

(Gtr 1)
|-----------------------------------|
|-----------------------------------|
|-----------------------------------|
|-0---------3---------6-------6--1--|
|-0---------3---------4-------6--1--|
|-0------00-3------00-6----00-6--1--|
         __        __      __

(Gtr 2)
|-----------------------------------|
|-----------------------------------|
|-7"--------5"--------6"------8"----|
|-x---------x---------x-------x-----|
|-5"--------3"--------4"------6"----|
|-----------------------------------|

|----------------------------------------------------------
|----------------------------------------------------------
|----------------------------------------------------------
|----------------------------------------------------------
|----------------------------------------------------------
|-0-0-0--0-0--0-0--0-0-2-3-2-0--0-0--0-0--0-0--0-0-2-3-2-0-
  ________________________________________________________

 --------------------------------------------|
 --------------------------------------------|
 --------------------------------------------|
 --------------------------------------------|
 --------------------------------------------|
 -0-0--0-0--0-0--0-0-2-3-2-0--0-0--0-0--0-0--|
  _________________________________________


CHORUS


|-----------------------------------|
|-----------------------------------|
|-----------------------------------|
|-----------------------------------|
|-----------------------------------|
|-0-1-0-2-0-1-0-2-0-----------0-1-0-|
  _________________________________
Suggest correction
Give kudos to tab author, rate the tab!
1 2 3 4 5
comments
print report bad tab
guest
You may want to rate the tab now too:
select rating
Wanna post a correction for this tab? Suggest correction