Oops, an error
Loading. Please wait.

Oppression Tab

321 views 1 this week
no commentswrite comment
1 2 3 4 5
3 more votes to show rating
add to favorites
launch autoscroll
font size
0
reset
how to read this tab
guitar tuner
Autoscroll
slow
fast
+/-
esc
set tempo
stop
Help us to improve Ultimate-Guitar.com Take our survey!
×
Band: Diecast
Song: Oppression

Tabber: John Cukras
Email: riffreaper@yahoo.com

Tuning: C G C F A D

Riff 1:
D-------------------------------------------------------|
A-------------------------------------------------------|
F-------------------------------------------------------|
C----------------------3 x's 12-------------------------|
G----------------------1----------3-2-1--0-1-2-3--3-2-1-|
C-0-1-2-3-2-1-0-1-2-00------------3-2-1--0-1-2-3--3-2-1-|
pm                  ..

Riff 2:
D------------------------------------|
A------------------------------------|
F------------------------------------|
C------------------------------------|
G---------1-3-0---------1-3-0--------|
C-0000-00-1-3-0-00-0000-1-3-0  x's 4-|
pm.... ..       .. ....

Riff 3:
D--------------------------------------------------------------------------|
A--------------------------------------------------------------------------|
F--------------------------------------------------------------------------|
C--------------------------------------------------------------------------|
G------------------11111-00000---------------------------------------------|
C-0-0-0-0-0-0-0-0--11111-00000 x's 4--11111-00000 x's 4--11111-00000 x's 4-|
pm. . . . . . . .                     ..... .....

Riff 2

Riff 3

Riff 2

Riff 4:
D--------------------------|
A--------------------------|
F--------------------------|
C--------------------------|
G------3-1------3-1--------|
C-0000-3-1-00-0-3-1  x's 4-|
pm....     .. .

Riff 5:
D-------------------|
A-------------------|
F-------------------|
C-------------------|
G-3-1-0-4-3-2 x's 4-|
C-3-1-0-4-3-2-------|

Riff 3 (without pm's in front and the very last 11111-00000 part)

Riff 2

Riff 6: After riff 2 a few times
D----------------------------------------------------------|
A----------------------------------------------------------|
F----------------------------------------------------------|
C----------------------------------------------------------|
G--------------------------------3---3---3---3---3---3---3-|
C-000-000-000-000-000-000-000-00-3-0-3-0-3-0-3-0-3-0-3-0-3-| (till end)
pm... ... ... ... ... ... ... ..   .   .   .   .   .   .
Suggest correction
Give kudos to tab author, rate the tab!
1 2 3 4 5
comments
print report bad tab
guest
You may want to rate the tab now too:
select rating
Wanna post a correction for this tab? Suggest correction