Oops, an error
Loading. Please wait.

Peacemaker Tab

612 views 1 this week
no commentswrite comment
1 2 3 4 5
1 last vote to show rating
add to favorites
launch autoscroll
font size
0
reset
how to read this tab
guitar tuner
Autoscroll
slow
fast
+/-
esc
set tempo
stop
Help us to improve Ultimate-Guitar.com Take our survey!
×
Band: Diecast
Song: Peacemaker

Tabber: John Cukras
Email: riffreaper@yahoo.com

Tuning: C G C F A D

Riff 1:                                               |  Riff 1 At the End
D-----------------------------------------------------|---------
A-----------------------------------------------------|---------
F-----------------------------------------------------|---------
C-----------------------------------------------------|---------
G---------11111---------1-1-1-1---------11111---------|---------
C-0-0-0-0-11111-0-0-0-0-1-1-1-1-0-0-0-0-11111-0-0-0-0-|--1-1-1-1
pm. . . . ..... . . . . . . . . . . . . ..... . . . .    . . . .

Riff 2:       Part A                  |        Part B
D-------------------------------------|-------------------------------
A-------------------------------------|-------------------------------
F-------------------------------------|-------------------------------
C-------------------------------------|-------------------------------
G---------11111---------1-1-1-1-------|-1-1-1-1-11111-1-1-1-1--1-1-1-1
C-0-0-0-0-11111-0-0-0-0-1-1-1-1 x's 4-|-1-1-1-1-11111-1-1-1-1--1-1-1-1 x's 2  Then Part A x's 2
pm        .....         . . . .         . . . . ..... . . . .  . . . .

Riff 3:
D------------------------------------
A------------------------------------
F------------------------------------
C------------------------------------
G------------------------------------
C-00000000000-1111-0000000000-1-1-1-1   Then Riff 2 Part B x's 2
pm........... .... .......... . . . .

Riff 4:
D-----------------------------------------------------------------
A-----------------------------------------------------------------
F-----------------------------------------------------------------
C----------3-4-6-5--3-4-6-5--5-4--4-5--5-6--3-4-6-5--5-4---------5
G-1-2-4-3--1-2-4-3--1-2-4-3--3-2--2-3--3-4--1-2-4-3--3-2---------3
C----------------------------------------------------------00000--
pm                                                         .....

Riff 5:   Part A                                        |      Part B
D-------------------------------------------------------|--------------------------------------------------
A-------------------------------------------------------|--------------------------------------------------
F-------------------------------------------------------|--------------------------------------------------
C-44444-33333-44444-55555-44444-33333-44444-555-3-4-6-5-|-44444-33333-44444-55555-44444-33333-44444-5-5-5-5
G-22222-11111-22222-33333-22222-11111-22222-333-1-2-4-3-|-22222-11111-22222-33333-22222-11111-22222-3-3-3-3
C-------------------------------------------------------|--------------------------------------------------

Riff 6: Part A                    |     Part B                           
D---------------------------------|--------------------------------------
A---------------------------------|--------------------------------------
F---------------------------------|--------------------------------------
C---------------------------------|--------------------------------------
G-111-2-11-2-3-4-5-111-2-11-------|-111-2-11-2-3-4-5-11-2-11-------------
C-111-2-11-2-3-4-5-111-2-11 x's 2-|-111-2-11-2-3-4-5-11-2-11-000000 x's 5  Then Part A once

Riff 5 Part A x's 2 , Part B once

Riff 6 Part A x's 2 , Part B x's 5 , Part A once

Riff 7:
D------------------------------------|-----------------------------------|----------------------------
A------------------------------------|-----------------------------------|----------------------------
F------------------------------------|-----------------------------------|----------------------------
C------------------------------------|---------3-4-------6666-5555-------|---------3-4-------6666-5555
G-0-1111-0-1111-0-1111---------1-1-1-|-00-1-00-1-2-------4444-3333-------|-00-1-00-1-2-------4444-3333
C-0-1111-0-1111-0-1111-0000000-1-1-1-|-00-1-00-    x's 3---------- x's 4 |-00-1-00---- x's 3---------- x's 4
pm  ....   ....   .... .......           .. . ...

Riff 1

Riff 2 Part A x's 2

Outro:
D---------------
A---------------
F---------------
C---------------
G-1-1-1-1-1111-1
C-1-1-1-1-1111-1
pm. . . . .... .
Suggest correction
Give kudos to tab author, rate the tab!
1 2 3 4 5
comments
print report bad tab
guest
You may want to rate the tab now too:
select rating
Wanna post a correction for this tab? Suggest correction