Oops, an error
Loading. Please wait.

Remember The Fallen Tab

449 views 1 this week
no commentswrite comment
1 2 3 4 5
2 more votes to show rating
add to favorites
launch autoscroll
font size
0
reset
how to read this tab
guitar tuner
Autoscroll
slow
fast
+/-
esc
set tempo
stop
Help us to improve Ultimate-Guitar.com Take our survey!
×
Band:DIECAST
Album:Day of Reckoning
Song:Remember the Fallen

Transcribed by:        Chris Humeniuk
Email: father_death_666&hotmail.com

Tuning:
strings 1-5 - 1 step down
string 6 - 2 steps down

Keys:
___ - palm mute
/ \ - slide
  ^  - bend
  x  - mute


Intro:
(Gtr 1 - clean)
|---------------------------------|
|-----4---3-----------------------|
|---2---2---2-2-2-----3---8-7---7-| (20x)
|-0-----------------3---0-----0---|
|-----------------1---------------|
|---------------------------------|

(Gtr 2 - clean)
|---------------------------------|
|-------------------------3-------|
|-----8---7-----------3-----------| (20x)
|-7-7-------------3-3-------------|
|/5---------------1---------------|
|---------------------------------|

(Gtr 3 - distortion)
|---------------------------------
|---------------------------------
|---------------------------------
|-0---------------3---------------
|-0---------------1---------------
|-0-------------------------------

---------------------------------|
---------------------------------|
---------------------------------| (3x)
-0---------------3-------3-------|
-0---------------1-------3-------|
-0-----------------------3-------|

|---------------------------------
|---------------------------------
|---------------------------------
|-0---------------3---------------
|-0---------------1---------------
|-0-------------------------------

                | Gtr 1 & 2 pause |
---------------|-----------------|
---------------|-----------------|
---------------|-----------------|
-0-------------|-3-3-------------|
-0-------------|-1-1-----3-3-----|
-0-------------|---------3-3-----|
                  ___     ___

Verse I: (Gtr 3)
|---------------------------------
|---------------------------------
|---------------------------------
|---0-------------3-3-------------
|-0-0-------------1-1-------------
|-0-0-----------------------------
  _               ___

------------------------------------|
------------------------------------|
------------------------------------| (3x)
---0-------------3-3----------------|
-0-0-------------1-1-----3-3--------|
-0-0---------------------3-3-000000-|
  _               ___     __________

|---------------------------------
|---------------------------------
|---------------------------------
|---0-------------3-3-------------
|-0-0-------------1-1-------------
|-0-0-----------------------------
  _               ___

                |  Gtr 1 & 2 end  |
---------------|-----------------|
---------------|-----------------|
---------------|-----------------|
---0-----------|-3-3-------------|
-0-0-----------|-1-1-----3-3-----|
-0-0-----------|---------3-3-----|
  _               ___     ___

        Distortion throughout rest of song

Verse II:
(Gtr's go back and forth)
|---------------------|      |-------------------------------|
|---------------------|      |-------------------------------|
|---------------------| (2x) |------------------9-/10--------| (2x)
|---------------------|      |------------------7-/8---------|
|---------------------|      |------------------7-/8---------|
|-0-0-0-0-0--0--0--0--|      |-0-0-0-0-0--0--0--7-/8----0-3^-|
  __________________           _______________          _

|----------------------------------------------------
|----------------------------------------------------
|----------------------------------------------------
|----------------------------------------------------
|-0-0-0-0-0--0--0--0--0-0-0-0-0--0--0--0-0-0-0-0-0-0-
|-0-0-0-0-0--0--0--0--0-0-0-0-0--0--0--0-0-0-0-0-0-0-
  __________________________________________________

--------------------|
--------------------|
-------9-/10--------| (3x)
-------7-/8---------|
-0--0--7-/8---------|
-0--0--7-/8----0-3^-|

|---------------------|      |-------------------------------|
|---------------------|      |-------------------------------|
|---------------------| (2x) |------------------5--8-10------|
|---------------------|      |------------------5--8-10--0---|
|-0-0-0-0-0--0--0--0--|      |-0-0-0-0-0--0--0--3--6--8--0---|
|-0-0-0-0-0--0--0--0--|      |-0-0-0-0-0--0--0--3--6--8--0---|
  __________________           _______________

Chorus:
|---------------------------------------------------------------
|---------------------------------------------------------------
|------------------------------------10--------------------8----
|-----------------0------------------10--------------------8----
|-----------------0-------------------8--------------------6----
|-0-0-0-0-0-0-0-0-0----0-0-0-0-0-0-0--8----0-0-0-0-0-0-0-0-6----
  _______________      _____________       _______________

-----------------------------|
-----------------------------|
-------------------5---5---5-| (6x)
-----------------x-5-x-5-x-5-|
-----------------x-3-x-3-x-3-|
-0-0-0-0-0-0-0-0-x-3-x-3-x-3-|
  _______________

Interlude:
|------------------------------------|
|------------------------------------|
|------------------------------------| (4x)
|-2--0--2--3--2--0--5--3--2--0--3--2-|
|-2--0--2--3--2--0--5--3--2--0--3--2-|
|-2--0--2--3--2--0--5--3--2--0--3--2-|
  __________________________________

|--------------------------------------------|
|--------------------------------------------|
|-5--5-5--5-5--5--5--5--5--5-5--5-5--5--5--5-| (2x)
|-5--5-5--5-5--5--5--5--5--5-5--5-5--5--5--5-|
|-3--3-3--3-3--3--3--3--3--3-3--3-3--3--3--3-|
|-3--3-3--3-3--3--3--3--3--3-3--3-3--3--3--3-|

|------------------------------------|
|------------------------------------|
|------------------------------------|
|-2--0--2--3--2--0--5--3--2--0--3--2-|
|-2--0--2--3--2--0--5--3--2--0--3--2-|
|-2--0--2--3--2--0--5--3--2--0--3--2-|
  __________________________________

|--------------------------------------------|
|--------------------------------------------|
|-5--5-5--5-5--5--5--5--5--5-5--5-5--5--5--5-|
|-5--5-5--5-5--5--5--5--5--5-5--5-5--5--5--5-|
|-3--3-3--3-3--3--3--3--3--3-3--3-3--3--3--3-|
|-3--3-3--3-3--3--3--3--3--3-3--3-3--3--3--3-|

|------------------------------------|
|------------------------------------|
|------------------------------------|
|-2--0--2--3--2--0--5--3--2--0--3--2-|
|-2--0--2--3--2--0--5--3--2--0--3--2-|
|-2--0--2--3--2--0--5--3--2--0--3--2-|
  __________________________________

|--------------------------------------------|
|--------------------------------------------|
|-5--5-5--5-5--5--5--5--5--5-5--5-5--5--5--5-|
|-5--5-5--5-5--5--5--5--5--5-5--5-5--5--5--5-|
|-3--3-3--3-3--3--3--3--3--3-3--3-3--3--3--3-|
|-3--3-3--3-3--3--3--3--3--3-3--3-3--3--3--3-|

|------------------------------------|
|------------------------------------|
|------------------------------------|
|-2--0--2--3--2--0--5--3--2--0--3--2-|
|-2--0--2--3--2--0--5--3--2--0--3--2-|
|-2--0--2--3--2--0--5--3--2--0--3--2-|
  __________________________________

|--------------------------------------------|
|--------------------------------------------|
|-5--5-5--5-5--5--5--5--5--5-5--5-5--5--5--5-|
|-5--5-5--5-5--5--5--5--5--5-5--5-5--5--5--5-|
|-3--3-3--3-3--3--3--3--3--3-3--3-3--3--3--3-|
|-3--3-3--3-3--3--3--3--3--3-3--3-3--3--3--3-|

|------------------------------------|
|------------------------------------|
|------------------------------------| (2x)
|-2--0--2--3--2--0--5--3--2--0--3--2-|
|-2--0--2--3--2--0--5--3--2--0--3--2-|
|-2--0--2--3--2--0--5--3--2--0--3--2-|
  __________________________________

|------------------------------------|
|------------------------------------|
|------------------------------------| (3x)
|-2--0--2--3--2--0--5--3--2--0--3--2-|
|-2--0--2--3--2--0--5--3--2--0--3--2-|
|-2--0--2--3--2--0--5--3--2--0--3--2-|

|------------------------------------|
|------------------------------------|
|-------------------5---8--10--------|
|-2--0--2--3--2--0--5---8--10---0----|
|-2--0--2--3--2--0--3---6---8---0----|
|-2--0--2--3--2--0--3---6---8---0----|


CHORUS (5x)


|--------------------|
|--------------------|
|--------------------|
|--------------------|
|--------------------|
|-0-0-0-0-0--0--0--0-|
  __________________

|----------------------------------------------------
|----------------------------------------------------
|----------------------------------------------------
|----------------------------------------------------
|-0-0-0-0-0--0--0--0--0-0-0-0-0--0--0--0-0-0-0-0-0-0-
|-0-0-0-0-0--0--0--0--0-0-0-0-0--0--0--0-0-0-0-0-0-0-
  __________________________________________________

------------------|
------------------|
-------9-/10------|
-------7-/8-------|
-0--0--7-/8-------|
-0--0--7-/8---0-3-|
               ___

|--------------------|
|--------------------|
|--------------------|
|--------------------|
|--------------------|
|-0-0-0-0-0--0--0--0-|
  __________________

(Gtr 1 till fade out)
|----------------------------------------------------
|----------------------------------------------------
|----------------------------------------------------
|----------------------------------------------------
|-0-0-0-0-0--0--0--0--0-0-0-0-0--0--0--0-0-0-0-0-0-0-
|-0-0-0-0-0--0--0--0--0-0-0-0-0--0--0--0-0-0-0-0-0-0-
  __________________________________________________

--------------------|
--------------------|
-------9-/10--------|
-------7-/8---------|
-0--0--7-/8---------|
-0--0--7-/8----0-3^-|

(Gtr 2 till fade out, after play above 3 times)
|------------------------------------------------------------|
|------------------------------------------------------------|
|------------------------------------------------------------|
|------------------------------------------------------------|
|------------------------------------------------------------|
|000000000000000000000000000000000000000000000000000000000000|
____________________________________________________________
Suggest correction
Give kudos to tab author, rate the tab!
1 2 3 4 5
comments
print report bad tab
guest
You may want to rate the tab now too:
select rating
Wanna post a correction for this tab? Suggest correction