Oops, an error
Loading. Please wait.

Seize The Day Tab

686 views 1 this week
no commentswrite comment
1 2 3 4 5
3 more votes to show rating
add to favorites
launch autoscroll
font size
0
reset
how to read this tab
guitar tuner
Autoscroll
slow
fast
+/-
esc
set tempo
stop
Help us to improve Ultimate-Guitar.com Take our survey!
×
Band: Diecast
song: Seize The Day

Tabber: John Cukras
email: riffreaper@yahoo.com

Tuning: Drop C

Riff 1:   Guitar 1                                                                          
D-------------------------------------------------------------------------------------------
A-------------------------------------------------------------------------------------------
F-------------------------------------------------------------------------------------------
C-------------------------------------------------------------------------------------------
G-5-5-5-5-5-5-4-4-4-4-4-4--9999-10-9-7-9-9999-10-9-7-9-------------5-5-5-5-5-5-4-4-4-4-4-4--
C-5-5-5-5-5-5-4-4-4-4-4-4--9999-10-9-7-9-9999-10-9-7-9-0000 x's 2--5-5-5-5-5-5-4-4-4-4-4-4--
pm                                                     ....

      Guitar 2        
|--------------------|
|--------------------|
|--------------------|
|-5-4-5-7-5-4--------|
|--------------------|
|------------ x's 6--|


Riff 2:  x's 3 , Then do ending part 4 more times.
D-----------------------------------------------------------
A-----------------------------------------------------------
F-----------------------------------------------------------
C-----------------------------------------------------------
G----2---3---22----2---3---2-3-2-1----2---3-2----3-2---111--
C-00---0---0----00---0---0---------00---0-----00-----0------
pm..   .   .    ..   .   .         ..   .     ..     .      

D-------------------------------------------------------------------|
A-------------------------------------------------------------------|
F-------------------------------------------------------------------|
C--------------------------------------------------------------5-7--|
G-----2---3---22----2---3---2-3-2-1----2---3-2---------7-9-5-7------|
C--00---0---0----00---0---0---------00---0-----000-7-9--------------|
pm ..   .   .    ..   .   .         ..   .     ...                   

Riff 3:
D----------------------------------------------------------------------------------------|
A----------------------------------------------------------------------------------------|
F----------------------------------------------------------------------------------------|
C----------------------------------------------------------------------------------------|
G-2-000000-------------2-000000-----------10-000000-------------5-000000-----------------|
C-2-000000-0-2-3-0-2-3-2-000000-3-2-1-1-0-10-000000-0-2-3-0-2-3-5-000000-3-2-1-1-0 x's 2-|
pm  ......               ......              ......               ......

Riff 4:
D-------------------------------------------------------|
A-------------------------------------------------------|
F-------------------------------------------------------|
C-------------------------------------------------------|
G-------------------------------------------------------|
C-000-0-2-1--000-000--000-0-2-1--1-2-3-0-1-2-3-2  x's 4-|
pm... . . .  ... ...  ... . . .

Riff 5:
D---------------------------------------------------------------------------------------------------|
A---------------------------------------------------------------------------------------------------|
F-5-4-5-7-5-4--5-4-5-7-5-4--5-4-5-7-5-4------------------------------------------5-4-5-7-5-4--------|
C-5-4-5-7-5-4--5-4-5-7-5-4--5-4-5-7-5-4------------------------------------------5-4-5-7-5-4 x's 3--|
G-------------------------------------------2---3---22----2---3---2-3-2-1---------------------------|
C----------------------------------------00---0---0----00---0---0-------- x's 2---------------------|
pm                                       ..   .   .    ..   .   .

Riff 4

P.S.
The Last Part of Riff 2, many variables sounds good, take your pick:
D----------------------------------------------------------------------------|
A----------------------------------------------------------------------------|
F----------------------------------------------------------------------------|
C-------------5-7---------------5-7------------------7-9-----------------7-9-|
G-----7-9-5-7-----------5-7-7-9-------------7-9-8-10------------8-10-7-9-----|
C-7-9---------------5-7----------------8-10----------------8-10--------------|
Suggest correction
Give kudos to tab author, rate the tab!
1 2 3 4 5
comments
print report bad tab
guest
You may want to rate the tab now too:
select rating
Wanna post a correction for this tab? Suggest correction