Oops, an error
Loading. Please wait.

Solace tab

by Diecast
266 views 1 this week
no commentswrite comment
1 2 3 4 5
3 more votes to show rating
add to favorites
×
Save as Personal and add changes to this tab that will be seen only by you. Learn more ›
×
You can save this tab as Personal to edit and correct it or add notes. All changes will be seen only by you. Learn more »
launch autoscroll
font size
0
reset
how to read this tab
guitar tuner
edit
Autoscroll
slow
fast
+/-
esc
set tempo
stop
Band: DIECAST
Album:Day of Reckoning
Song: Solace

Transcribed by:        Chris Humeniuk
Email: father_death_666&hotmail.com

Tuning:
strings 1-5 - 1 step down
string    6 - 2 steps down

Keys:
  h  - hammer-on
  p  - pull-off
___ - palm mute
<#> - N.H.
  ~  - vibrate string
  "  - tremelo pick


INTRO:
(gtr 1)
|-0-----0-----------------0----------0---|
|-3--3--3h4--4--3h4p3--3--3----3--3--3h4-|
|----------------------5--5--5-----------|
|----------------------------------------|
|----------------------------------------|
|----------------------------------------| (2x before gtr 2)

(gtr 1)
|-0-----0-----------------0----------0---|
|-3--3--3h4--4--3h4p3--3--3----3--3--3h4-|
|----------------------5--5--5-----------|
|----------------------------------------|
|----------------------------------------|
|----------------------------------------|

(gtr 2)
|----------------------------------------
|----------------------------------------
|----------------------------------------
|-0--------------------0-----------------
|-0--------------------0-----------------
|-0--------------------0-----------------

(gtr 1)
|-0-----0-----------------0----------0---|
|-3--3--3h4--4--3h4p3--3--3----3--3--3h4-|
|----------------------5--5--5-----------|
|----------------------------------------|
|----------------------------------------|
|----------------------------------------|

(gtr 2)
----------------------------------------
----------------------------------------
----------------------------------------
-6--------------------6-----------------
-6--------------------6-----------------
-6--------------------6-----------------

(gtr 1)
|-0-----0-----------------0----------0---|
|-3--3--3h4--4--3h4p3--3--3----3--3--3h4-|
|----------------------5--5--5-----------|
|----------------------------------------|
|----------------------------------------|
|----------------------------------------|

(gtr 2)
----------------------------------------
----------------------------------------
----------------------------------------
-0--------------------0-----------------
-0--------------------0-----------------
-0--------------------0-----------------

(gtr 1)
|-0-----0-----------------0----------0---|
|-3--3--3h4--4--3h4p3--3--3----3--3--3h4-|
|----------------------5--5--5-----------|
|----------------------------------------|
|----------------------------------------|
|----------------------------------------|

(gtr 2)
----------------------------------------
----------------------------------------
----------------------------------------
-6-------------------6-6----------------
-6-------------------6-6----------------
-6-------------------6-6----------------

(gtr 1)
|-0-----0-----------------0----------0---|
|-3--3--3h4--4--3h4p3--3--3----3--3--3h4-|
|----------------------5--5--5-----------|
|----------------------------------------|
|----------------------------------------|
|----------------------------------------|

(gtr 2)
----------------------------------------
----------------------------------------
----------------------------------------
-0--------------------0-----------------
-0--------------------0-----------------
-0--------------------0-----------------

(gtr 1)
|-0-----0-----------------0----------0---|
|-3--3--3h4--4--3h4p3--3--3----3--3--3h4-|
|----------------------5--5--5-----------|
|----------------------------------------|
|----------------------------------------|
|----------------------------------------|

(gtr 2)
----------------------------------------
----------------------------------------
----------------------------------------
-6--------------------6-----------------
-6--------------------6-----------------
-6--------------------6-----------------

(gtr 1)
|-0-----0-----------------0----------0---|
|-3--3--3h4--4--3h4p3--3--3----3--3--3h4-|
|----------------------5--5--5-----------|
|----------------------------------------|
|----------------------------------------|
|----------------------------------------|

(gtr 2)
----------------------------------------
----------------------------------------
----------------------------------------
-0--------------------0-----------------
-0--------------------0-----------------
-0--------------------0-----------------

(gtr 1)
|-0-----0--------------------------------
|-3--3--3h4--4--3h4p3--------------------
|----------------------------------------
|----------------------6--------3--------
|----------------------6--------3--------
|----------------------6--------3--------
                       _        _

(gtr 2)
----------------------------------------
----------------------------------------
----------------------------------------
-6--------------------6--------3--------
-6--------------------6--------3--------
-6--------------------6--------3--------
                       _        _

(gtr 1)
------------------------------------------------------------------------|
------------------------------------------------------------------------|
------------------------------------------------------------------------|
-0--0-0-0-00000"-----------------------------------0--------------------|
-0--0-0-0-00000"-----------------------------------0--------------------|
-0--0-0-0-00000"-----------------------------------0--------------------|

(gtr 2)
------------------------------------------------------------------------|
------------------------------------------------------------------------|
------------------------------------------------------------------------|
-0--0-0-0------------------------------------------0--------------------|
-0--0-0-0------------------------------------------0--------------------|
-0--0-0-0-"-0--------------------|


RIFF 1:

|--------------------------|       |--------------------------|
|--------------------------|       |--------------------------|
|--------------------------|       |--------------------------|
|----------------3---4---3-|       |----------------6---5---1-|
|----------------3---4---3-|       |----------------6---5---1-|
|-0-0-0--0-0-0-0-3-0-4-0-3-| (7x)  |-0-0-0--0-0-0-0-6-0-5-0-1-|
  ______________   _   _             ______________   _   _

|--------------------------|       |--------------------------|
|--------------------------|       |--------------------------|
|--------------------------|       |--------------------------|
|----------------3---4---3-|       |----------------6---5---1-|
|----------------3---4---3-|       |----------------6---5---1-|
|-0-0-0--0-0-0-0-3-0-4-0-3-| (3x)  |-0-0-0--0-0-0-0-6-0-5-0-1-|
  ______________   _   _             ______________   _   _


RIFF 2:

|---------------------|       |--------------------------|
|---------------------|       |--------------------------|
|---------------------|       |--------------------------|
|-7----3----5----6----|       |-7----3----5-555555-66666-|
|-5----1----3----6----|       |-5----1----3-333333-66666-|
|----------------6----| (3x)  |--------------------66666-|
                                            ____________

RIFF 2 FILL:

|-0-----0-----------------0----------0---|
|-3--3--3h4--4--3h4p3--3--3----3--3--3h4-|
|----------------------5--5--5-----------|
|----------------------------------------|
|----------------------------------------|
|----------------------------------------|


RIFF 3:

|-------------------------------------------|
|-----------------------|
|-------------------------------------------|
|-----------------------|
|-------------------------------------------|
|-----------------------|
|-------------------------------6p5---3--3--|
|-0-------------------0-|
|-------------------------------6p5---1--3--|
|-0-------------------0-|
|-0-0---0-0-0-0--0-0--0-0---0-0-6p5-0----3--| (8x)
|-0-------------------0-|
  _____________________________     _

RIFF 3 FILL:

|--------------------------------|
|--------------------------------|
|--------------------------------|
|--------------------------------|
|-5--3h4-5--3h4--5--3h4-5--------|
|-----------------------0--------|


RIFF 1:

|--------------------------|       |--------------------------|
|--------------------------|       |--------------------------|
|--------------------------|       |--------------------------|
|----------------3---4---3-|       |----------------6---5---1-|
|----------------3---4---3-|       |----------------6---5---1-|
|-0-0-0--0-0-0-0-3-0-4-0-3-| (3x)  |-0-0-0--0-0-0-0-6-0-5-0-1-|
  ______________   _   _             ______________   _   _

|--------------------------|       |--------------------------|
|--------------------------|       |--------------------------|
|--------------------------|       |--------------------------|
|----------------3---4---3-|       |----------------6---5---1-|
|----------------3---4---3-|       |----------------6---5---1-|
|-0-0-0--0-0-0-0-3-0-4-0-3-| (3x)  |-0-0-0--0-0-0-0-6-0-5-0-1-|
  ______________   _   _             ______________   _   _


RIFF 2:

|---------------------|       |--------------------------|
|---------------------|       |--------------------------|
|---------------------|       |--------------------------|
|-7----3----5----6----|       |-7----3----5-555555-66666-|
|-5----1----3----6----|       |-5----1----3-333333-66666-|
|----------------6----| (3x)  |--------------------66666-|
                                            ____________


RIFF 3:

|-------------------------------------------|
|-------------------------------------------|
|-------------------------------------------|
|-------------------------------6p5---3--3--|
|-------------------------------6p5---1--3--|
|-0-0---0-0-0-0--0-0--0-0---0-0-6p5-0----3--| (8x)
  _____________________________     _

RIFF 3 FILL:

|--------------------------------|----------|
|--------------------------------|----------|
|--------------------------------|----------|
|--------------------------------|----------|
|-5--3h4-5--3h4--5--3h4-5--------|-5--------|
|-----------------------0--------|-0--------|


RIFF 4:

|-------------------------------------------------|
|-------------------------------------------------|
|-------------------------------------------------|
|-6----5-6-5---------------6----5-6-5-0--1--4--3--|
|-6----5-6-5---------------6----5-6-5-0--1--4--3--|
|-6-00-5-6-5-00-000-00-000-6-00-5-6-5-0--1--4--3--|
    __       _____________   __

|-------------------------------------------------|
|-------------------------------------------4--3br|
|-------------------------------------3--2--------| <=Gtr 2>
|-6----5-6-5---------------6----5-6-5-------------|
|-6----5-6-5---------------6----5-6-5-1--0--6--5br| <=Gtr 1>
|-6-00-5-6-5-00-000-00-000-6-00-5-6-5-------------|
    __       _____________   __                     (3x)

|-------------------------------------------------|
|-------------------------------------------------|
|-------------------------------------------------|
|-6----5-6-5---------------6----5-6-5-0--1--4--3--|
|-6----5-6-5---------------6----5-6-5-0--1--4--3--|
|-6-00-5-6-5-00-000-00-000-6-00-5-6-5-0--1--4--3--|
    __       _____________   __

|---------------------------------------------------------------------------
|-------------------------------------------------4h5p4h5p4h5p4h5p4h5p4h5p4-
|-------------------------------------3~~~~-2~~~~---------------------------
|-6----5-6-5---------------6----5-6-5---------------------------------------
|-6----5-6-5---------------6----5-6-5-1~~~~-0-----6h7p6h7p6h7p6h7p6h7p6h7p6-
|-6-00-5-6-5-00-000-00-000-6-00-5-6-5---------------------------------------
    __       _____________   __

---------------------------|
-3h4p3h4p3h4p3h4p3h4p3h4p3-| <=Gtr 2>
---------------------------|
---------------------------|
-5h6p5h6p5h6p5h6p5h6p5h6p5-| <=Gtr 1>
---------------------------|


OUTRO:

|--------------------------|       |----------------------|
|--------------------------|       |----------------------|
|--------------------------|       |----------------------|
|------2h3------2h3----4p3-|       |------2h3----3--1--4--|
|------2h3------2h3----4p3-|       |------2h3----3--1--4--|
|-0--0-2h3-0--0-2h3-00-4p3-| (3x)  |-0--0-2h3-00-3--1--4--|
  ____     ____     __               ____     __

|--------------------------|       |----------------------|
|--------------------------|       |----------------------|
|--------------------------|       |----------------------|
|------2h3------2h3----4p3-|       |------2h3----3--1--4--|
|------2h3------2h3----4p3-|       |------2h3----3--1--4--|
|-0000-2h3-0000-2h3-00-4p3-| (3x)  |-0000-2h3-00-3--1--4--|
  ____     ____     __               ____     __

|--------------------------|       |----------------------|
|--------------------------|       |----------------------|
|--------------------------|       |----------------------|
|------2h3------2h3----4p3-|       |------2h3----3--1--4--|
|------2h3------2h3----4p3-|       |------2h3----3--1--4--|
|-0--0-2h3-0--0-2h3-00-4p3-| (3x)  |-0--0-2h3-00-3--1--4--|
  ____     ____     __               ____     __

|--------------------------|       |----------------------|
|--------------------------|       |----------------------|
|--------------------------|       |----------------------|
|------2h3------2h3----4p3-|       |------2h3----3--1--4--|
|------2h3------2h3----4p3-|       |------2h3----3--1--4--|
|-0000-2h3-0000-2h3-00-4p3-| (3x)  |-0000-2h3-00-3--1--4--|
  ____     ____     __               ____     __

            
            
Suggest correction
Creating personal tab
Creating personal tab
You can edit any tab online and save it as your Personal.

You can edit, replace or remove any tab part or add personal notes – all changes will be seen only by you.

Personal tabs can be accessed anytime from any device, even offline.
Learn more »
Give kudos to tab author, rate the tab!
1 2 3 4 5
comments
print report bad tab
guest
You may want to rate the tab now too:
select rating
Wanna post a correction for this tab? Suggest correction