Oops, an error
Loading. Please wait.

Unlearn Tab

106 views 1 this week
no commentswrite comment
1 2 3 4 5
3 more votes to show rating
add to favorites
launch autoscroll
font size
0
reset
how to read this tab
guitar tuner
Autoscroll
slow
fast
+/-
esc
set tempo
stop
Help us to improve Ultimate-Guitar.com Take our survey!
×
Band: Diecast
Song: Unlearn

Tabber: John Cukras
AIM: sanguinarylord

Tuning: C G C F A D

Riff 1:
D----------------------------------------------------------------------------------
A----------------------------------------------------------------------------------
F----------------------------------------------------------------------------------
C----19-20------19-20-----19-20-----19-20--------------------19-20-----------------
G-17--------17---------17--------17--------000-----------17--------x's 4--00-0-00-1
C------------------------------------------000--x's 7 --------------------00-0-00-1
pm                                         ...                            .. . ..

Riff 2: Part A                    Part B
D---------------------------|-------------------------------14
A---------------------------|-------------------------13-13---
F---------------------------|-------------12----13-12---------
C---------------------------|----------11----12---------------
G---------3----3-4-3--------|---------------------------------
C-0000000-3-00-3-4-3 x's 7 -|-0000000-------------------------
pm.......   ..                .......

Riff 2: as is

Riff 2: Part A x's 3, Part B

Riff 3:  Part A                   Part B
D------------------------------|--------------
A------------------------------|--------------
F------------------------------|--------------
C------------------------------|--------------
G-00-1-0--9999-10-9-8-9--------|-00-1-0-00-1-0
C-00-1-0---------------  x's 4-|-00-1-0-00-1-0  x's 4
pm.. . .                         .. . . .. . .

Riff 3: Part A x's 5

Riff 2: Part A x's 3, Part B

Riff 2: as is

Riff 2: Part A x's 4

Riff 4:
D-----------------|---------------------------------------------------|-----------------------------------
A-----------------|---------------------------------------------------|-----------------------------------
F-----------------|---------------------------------------------------|-----------------------------------
C-----------------|---------7-6---------------------------------------|----7-6----------------------------
G-0-1-2-1-5-4-3-4-|-1111111-----7-8-9--------111111-1/4-4/3-3/6-------|-1------7-8-9--------1--1/4-4/3-3/6
C-0-1-2-1-5-4-3-4-|-1111111-----------9-8-7--111111-1/4-4/3-3/6 x's 2 |-1------------9-8-7--1--1/4-4/3-3/6 x6
pm. . . . . . . .

Riff 3: Part A x's 8, Part B x's 8

Riff 5:
D---------------------------|-------------|-----------------|---------------
A---------------------------|-------------|-----------------|---------------
F---------------------------|-------------|-----------------|---------------
C---------------44444-33333-|-------------|-----------------|---------------
G-222222-11111--------------|-11-11-------|--5-4-3-4--------|--11-11-5-4-3-4
C---------------------------|-11-11 x's 4-|--5-4-3-4 x's 4 -|--11-11-5-4-3-4 x's 4
pm                                           . . . .                 . . . .
Suggest correction
Give kudos to tab author, rate the tab!
1 2 3 4 5
comments
print report bad tab
guest
You may want to rate the tab now too:
select rating
Wanna post a correction for this tab? Suggest correction