Oops, an error
Loading. Please wait.

Cosquillitas Tab

4 views 1 this week
no commentswrite comment
1 2 3 4 5
3 more votes to show rating
add to favorites
launch autoscroll
font size
0
reset
how to read this tab
guitar tuner
Autoscroll
slow
fast
+/-
esc
set tempo
stop
Help us to improve Ultimate-Guitar.com Take our survey!
×
Author
Difficulty
novice
[Intro]

e|----12-9------12-9-----10-7-----7-----0--12--------------------------------|
B|-10------10\9------9\7------7\5---9\7--------------------------------------|
G|---------------------------------------------------------------------------|
D|---------------------------------------------------------------------------|
A|---------------------------------------------------------------------------|
E|---------------------------------------------------------------------------|



e|---------------------------------------------------------------------------|
B|------10--12-12-14-12--12-14-12---14-12-10----10-10----10-12-10-10-12-10---|
G|-9-11--------------------------------------11------------------------------|    X2
D|---------------------------------------------------------------------------|
A|---------------------------------------------------------------------------|
E|---------------------------------------------------------------------------|

e|-------------12----12----12------------------12----12----12----------------|
B|-10-12-14-10----12----12----12---12-14-15-12----10----10----10-------------|
G|---------------------------------------------------------------------------|
D|---------------------------------------------------------------------------|
A|---------------------------------------------------------------------------|
E|---------------------------------------------------------------------------|

e|-------------12----12----12------12-------------9------9-----14------------9---9---9-------|
B|-10-12-14-10----12----12----12------15-14-12-10---10-9---9-7----7-9-10---10--9---7---5-----|
G|-------------------------------------------------------------------------------------------|
D|-------------------------------------------------------------------------------------------|
A|-------------------------------------------------------------------------------------------|
E|-------------------------------------------------------------------------------------------|

e|---------------------------------------------------------------------------|
B|---------------------------------------------------------------------------|
G|---------------------------------------------------------------------------|
D|-----7-9--9-11-9--9-11-9--11-9-7---7-7--7-9-7--7-9-7-----------------------|   x2
A|-7-9-----------------------------9-----------------------------------------|
E|---------------------------------------------------------------------------|


 <*********************************PM***************************************>
e|---------------------------------------------------------------------------|
B|------10--12-12-14-12--12-14-12---14-12-10----10-10----10-12-10-10-12-10---|
G|-9-11--------------------------------------11------------------------------|    X2
D|---------------------------------------------------------------------------|
A|---------------------------------------------------------------------------|
E|---------------------------------------------------------------------------|



e|-------------12----12----12------------------12----12----12----------------|
B|-10-12-14-10----12----12----12---12-14-15-12----10----10----10-------------|
G|---------------------------------------------------------------------------|
D|---------------------------------------------------------------------------|
A|---------------------------------------------------------------------------|
E|---------------------------------------------------------------------------|


e|-------------12----12----12------12-------------9------9-----14------------9---9---9-------|
B|-10-12-14-10----12----12----12------15-14-12-10---10-9---9-7----7-9-10---10--9---7---5-----|
G|-------------------------------------------------------------------------------------------|
D|-------------------------------------------------------------------------------------------|
A|-------------------------------------------------------------------------------------------|
E|-------------------------------------------------------------------------------------------|


e|--------------12-12-12----------12-12-12---------------------------------------------------------|
B|------10--12------------14-12------------14-12---14-12-10----10-10-10-10-10-12-10--10-10-10-12-10|
G|-9-11-----------------------------------------------------11-------------------------------------|   
D|-------------------------------------------------------------------------------------------------|
A|-------------------------------------------------------------------------------------------------|
E|-------------------------------------------------------------------------------------------------|

e|--------------12-12-12--------12-12-12-----------------------------------------------------|
B|------10--12------------14-12----------14-12---14-12-10----10-10--10-12-10--10-12-10-------|
G|-9-11---------------------------------------------------11---------------------------------|    
D|---------------------------------------------------------------------------------------|
A|---------------------------------------------------------------------------------------|
E|---------------------------------------------------------------------------------------|

e|---------------------------------------------------------------------------|
B|------10--12-12-14-12--12-14-12---14-12-10----10-10----10-12-10-10-12-10---|
G|-9-11--------------------------------------11------------------------------|    X2
D|---------------------------------------------------------------------------|
A|---------------------------------------------------------------------------|
E|---------------------------------------------------------------------------|

...END...

************************************

| \   Slide down
| PM  Palm mute


************************************
Suggest correction
Give kudos to tab author, rate the tab!
1 2 3 4 5
comments
print report bad tab
guest
You may want to rate the tab now too:
select rating
Wanna post a correction for this tab? Suggest correction