Oops, an error
Loading. Please wait.

Backlash Youre Dead bass

91 views 3 this week
no commentswrite comment
1 2 3 4 5
3 more votes to show rating
add to favorites
×
Save as Personal and add changes to this tab that will be seen only by you. Learn more ›
×
You can save this tab as Personal to edit and correct it or add notes. All changes will be seen only by you. Learn more »
launch autoscroll
font size
0
reset
guitar tuner
edit
Autoscroll
slow
fast
+/-
esc
set tempo
stop
Backlash (youre dead) by Dieradiodie. A great song, by an even better band.

Drop D
Timing is very easy


INTRO (The order is at the end)

G|-----------------------------------------------------------|
D|-----------------------------------------------------------|
A|-----------------------------------------------------------|
D|--10--10--10-10--10--10--8--8--8-8--8--8--6--6--6-6--6--6--|

G|--------------------|
D|--------------------|
A|--------------------|
D|--6--6--6-6--6--6---|

VERSE

G|----------------------------------------------|
D|--------10-----------10---------8---------8---|
A|-----10---10------10---10-----8--8------8--8--|
D|--10-----------10-----------8---------8-------|

G|---------------------------------------|
D|------6--------6--------6--------6-----|
A|----6--6-----6--6-----6--6-----6---6---|
D|--6--------6--------6--------6---------|

VERSE-END
im not so sure about this part, but it sounds right when i play along with it

G|--------------------------------------|
D|--------------------------------------|
A|--------------------------------------|
D|--10-10-10-------8-8-8------6-6-6-----|

PRE-CHORUS
this is the part with where the lead guitar does that little country sounding thing. 
play this part the second time only at the end.

G|------------------------------------------------|
D|------------------------------------------------|
A|------------------------------------------------|
D|--10-10-10---6-6-6----3-3-3---(5-5-5-5-5-5-5-5)-|

CHORUS

G|------------------------------------------|
D|------------------------------------------|
A|------------------------------------------|
D|--10-10-10---6-6-6---3-3-3---5-5-5-5-5-5--|

BREAK/VERSE 2
This is the part where Brent is going Whoah-ohhh, whoah-ohh ohhh etc.

G|------------------------------------------------------|
D|------------------------------------------------------|
A|------------------------------------------------------|
D|--10-10---10-10----6-6--6-6---3-3---3-3---6-6---6-6---|


BRIDGE

G|-------------|
D|-------------|
A|-------------|  x4 (on the last time, strum the 8)
D|--6------8---|

OUTRO

G|-------------------|
D|-------------------|
A|-------------------|
D|---10--10--10--10--|


ORDER

Intro x2
Verse x2
Verse-end x1
Pre-Chorus x2
Chorus x2
Verse 2 x2
Bridge x4
Outro x2

Tabbed by Kevin Johnston. Any questions/comments/whatever, email me at DarkSilhouette_37@hotmail.com

            
            
Suggest correction
Creating personal tab
Creating personal tab
You can edit any tab online and save it as your Personal.

You can edit, replace or remove any tab part or add personal notes – all changes will be seen only by you.

Personal tabs can be accessed anytime from any device, even offline.
Learn more »
Give kudos to tab author, rate the tab!
1 2 3 4 5
comments
print report bad tab
guest
Wanna post a correction for this tab? Suggest correction