Oops, an error
Loading. Please wait.

Come A Little Closer Tab

version 5
version 5

Whole song

488 views 3 this week
no commentswrite comment
1 2 3 4 5
please rate
add to favorites
launch autoscroll
font size
0
reset
how to read this tab
guitar tuner
Autoscroll
slow
fast
+/-
esc
set tempo
stop
Help us to improve Ultimate-Guitar.com Take our survey!
×
Author
Difficulty
novice
Just watched him live and I know this is how he plays it.

Tuning: Full Step down (DGCFAD)

Chords:
   G      C    Em      Am      D
|--3------3-----7-------0------2----|
|--3------3-----8-------1------3----|
|--0------0-----9-------2------2----|
|--0------2-----9-------2------0----|
|--x------3-----7-------0-----------|
|--3--------------------------------|



Intro
|---------------------------------------------------------------|
|o--15----15----15-12----13----13-12--------------12------------|
|------12----12-------12----12-------12--------12----12---------|
|---------------------------------------12--12----------14~--12~|
|o--------------------------------------------------------------|
|---------------------------------------------------------------|

|---------------------------------------------------------------|
|--15----15----15-12----13----13-12-----------------------------|
|-----12----12-------12----12-------12------------12----12------|
|--------------------------------------12---10h12----12----14~--|
|---------------------------------------------------------------|
|---------------------------------------------------------------|


G                              C
 Come a little closer, baby
                      G        C
I feel like layin' you down
G                            C
 On a bed of sweet surrender
             G               C
Where we can work it all out

Em                        C
  There ain't nothin' that love can't fix
Em                             C
  Girl, it's right here at our fingertips

G                              C
 So come a little closer baby,
                      G       C
I feel like layin' you down


G                              C
 Come a little closer, baby
                      G        C
I feel like lettin' go

G                              C
 Of everything that stands between us

                      G        C
And the love we used to know

Em                        C
  I wanna touch you like a cleansing rain
Em                        C
  Let it wash all the hurt away

G                              C
 So come a little closer baby
                    G
I feel like lettin' go


C
If there's still a chance

Then take my hand
          G
And we'll steal away
      C
Off into the night

'till we make things right
      Am               D
The suns gonna rise on a better day

GUITAR SOLO (pretty much the same as the intro)

G                              C
 Come a little closer baby
                      G        C
I feel like strippin' it down
G                              C
 Back to the basics of you and me
                      G        C
And what makes the world go round

Em                        C
  Every inch of you against my skin
Em                        C
  I wanna be stronger than we've ever been

G                              C
 So come a little closer baby
                      G        C
I feel like strippin' it down

G                              C
 Come a little bit closer baby
G                              C
 Just a little bit closer baby
G                              C
 Come a little bit closer baby
                       G        C
I feel like layin' you down

Suggest correction
What's this?
You can suggest a correction to this tab. Community and Mods will review your correction and vote to approve or reject it.
comments
We did not receive enough feedback on this tab! Please rate:
print report bad tab
1 2 3 4 5
guest
You may want to rate the tab now too:
select rating
Please do not post tabs as comments. Select "correction" instead!