Oops, an error
Loading. Please wait.

Long Trip Alone Tab

version 1
version 1

Whole song

8,343 views 3 this week
no commentswrite comment
1 2 3 4 5
please rate
add to favorites
launch autoscroll
font size
0
reset
how to read this tab
guitar tuner
Tab Pro tools
  • play this tab
  • loop segment
  • change instrument
  • show fretboard
  • metronome
×
Best way to learn
"Long Trip Alone"
Autoscroll
slow
fast
+/-
esc
set tempo
stop
Contributor
Difficulty
novice
----------------------------------------------------------------------------
                   Long Trip Alone - Dierks Bentley
----------------------------------------------------------------------------
Tabbed by: Brandon G
Email: terre.gable334@wku.edu

Tuning: Standard (EADGBe)
ALWAYS STRUM DOWN.
Intro:
    G                   Bm
e|--x--x--x--x--x--x--x--x--x--x--x--x--x--x--x--|
B|--3--3--3--3--3--3--x--2--2--2--2--2--2--2--2--|
G|--0--0--0--2--4--0--x--4--4--4--4--4--4--4--4--|
D|--0--0--0--0--0--0--x--4--4--4--4--4--4--4--4--|2x
A|--2--2--2--0--0--2--x--2--2--2--2--2--2--2--2--|
E|--3--3--3--3--3--3--x--x--x--x--x--x--x--x--x--|
                                         It's a
Verse:
    G                   Bm
e|--x--x--x--x--x--x--x--x--x--x--x--x--x--x--x--|
B|--3--3--3--3--3--3--x--2--2--2--2--2--2--2--2--|
G|--0--0--0--2--4--0--x--4--4--4--4--4--4--4--4--|
D|--0--0--0--0--0--0--x--4--4--4--4--4--4--4--4--|2x
A|--2--2--2--0--0--2--x--2--2--2--2--2--2--2--2--|
E|--3--3--3--3--3--3--x--x--x--x--x--x--x--x--x--|
        long  trip  alone.
      Over sand and stone.
   Cadd                     G
e|--x--x--x--x--x--x--x--x--x--x--x--x--x--x--x--x--|
B|--3--3--3--3--3--3--3--3--3--3--3--3--3--3--3--3--|
G|--0--0--0--0--0--0--0--0--0--0--0--0--0--0--0--0--|
D|--2--2--2--2--2--2--2--2--0--0--0--0--0--0--0--0--|
A|--3--3--3--3--3--3--3--3--2--2--2--2--2--2--2--2--|
E|--x--x--x--x--x--x--x--x--3--3--3--3--3--3--3--3--|
      That lie along the road, that we all must tra-
    D                                           open
e|--x--x--x--x--x--x--x--x--x--x--x--x--x--x--x--x--|
B|--3--3--3--3--3--3--3--3--3--3--3--3--3--3--3--0--|
G|--2--2--2--2--2--2--2--2--2--2--2--2--2--2--2--0--|
D|--0--0--0--0--0--0--0--0--0--0--0--0--0--0--0--0--|
A|--x--x--x--x--x--x--x--x--x--x--x--x--x--x--x--x--|
E|--x--x--x--x--x--x--x--x--x--x--x--x--x--x--x--x--|
    -avel down....

Chorus:
   Cadd                     G        D
e|--x--x--x--x--x--x--x--x--x--x--x--x--x--x--x--|
B|--3--3--3--3--3--3--3--3--3--3--3--3--3--3--3--|
G|--0--0--0--0--0--0--0--0--0--0--0--2--2--2--2--|
D|--2--2--2--2--2--2--2--2--0--0--0--0--0--0--0--|
A|--3--3--3--3--3--3--3--3--2--2--2--x--x--x--x--|
E|--x--x--x--x--x--x--x--x--3--3--3--x--x--x--x--|
          So maybe you could walk with me a while
   Cadd                     G        D
e|--x--x--x--x--x--x--x--x--x--x--x--x--x--x--x--|
B|--3--3--3--3--3--3--3--3--3--3--3--3--3--3--3--|
G|--0--0--0--0--0--0--0--0--0--0--0--2--2--2--2--|
D|--2--2--2--2--2--2--2--2--0--0--0--0--0--0--0--|
A|--3--3--3--3--3--3--3--3--2--2--2--x--x--x--x--|
E|--x--x--x--x--x--x--x--x--3--3--3--x--x--x--x--|
          And maybe I can rest beneath your smile
   Cadd                    Em
e|--x--x--x--x--x--x--x--x--x--x--x--x--x--x--x--x--|
B|--3--3--3--3--3--3--3--3--0--0--0--0--0--0--0--0--|
G|--0--0--0--0--0--0--0--0--0--0--0--0--0--0--0--0--|
D|--2--2--2--2--2--2--2--2--2--2--2--2--2--2--2--2--|
A|--3--3--3--3--3--3--3--3--2--2--2--2--2--2--2--2--|
E|--x--x--x--x--x--x--x--x--x--x--x--x--x--x--x--x--|
                 Everybody  stumbles  sometimes and
    Am                      C
e|--x--x--x--x--x--x--x--x--x--x--x--x--x--x--x--x--x-------------------|
B|--1--1--1--1--1--1--1--1--1--1--1--1--1--1--1--1--1-------------------|
G|--2--2--2--2--2--2--2--2--0--0--0--0--0--0--0--0--0-------------------|
D|--2--2--2--2--2--2--2--2--2--2--2--2--2--2--2--2--2--HOLD-------------|
A|--0--0--0--0--0--0--0--0--3--3--3--3--3--3--3--3--3-------------------|
E|--x--x--x--x--x--x--x--x--x--x--x--x--x--x--x--x--x-------------------|
     needs  a  hand  to   hold............   Cause its a long trip alone.

REPEAT FROM INTRO..

Bridge:
     Em                       C
e|----0--0--0--0--0--0--0--0--0--0--0--0--0--0--0--0--|
B|----0--0--0--0--0--0--0--0--1--1--1--1--1--1--1--1--|
G|----0--0--0--0--0--0--0--0--0--0--0--0--0--0--0--0--|
D|----2--2--2--2--2--2--2--2--2--2--2--2--2--2--2--2--|
A|----2--2--2--2--2--2--2--2--3--3--3--3--3--3--3--3--|
E|----0--0--0--0--0--0--0--0--0--0--0--0--0--0--0--0--|
And I don't  know  where I'd  be    without    you
    G                       D
e|--3--3--3--3--3--3--3--3--2--2--2--2--2--2--2--2--|
B|--3--3--3--3--3--3--3--3--3--3--3--3--3--3--3--3--|
G|--0--0--0--0--0--0--0--0--2--2--2--2--2--2--2--2--|
D|--0--0--0--0--0--0--0--0--0--0--0--0--0--0--0--0--|
A|--2--2--2--2--2--2--2--2--0--0--0--0--0--0--0--0--|
E|--3--3--3--3--3--3--3--3--0--0--0--0--0--0--0--0--|
    here............................ Repeat bridge 4x

Chorus:
   Cadd                     G        D
e|--x--x--x--x--x--x--x--x--x--x--x--x--x--x--x--|
B|--3--3--3--3--3--3--3--3--3--3--3--3--3--3--3--|
G|--0--0--0--0--0--0--0--0--0--0--0--2--2--2--2--|
D|--2--2--2--2--2--2--2--2--0--0--0--0--0--0--0--|
A|--3--3--3--3--3--3--3--3--2--2--2--x--x--x--x--|
E|--x--x--x--x--x--x--x--x--3--3--3--x--x--x--x--|
          So maybe you could walk with me a while
   Cadd                     G        D
e|--x--x--x--x--x--x--x--x--x--x--x--x--x--x--x--|
B|--3--3--3--3--3--3--3--3--3--3--3--3--3--3--3--|
G|--0--0--0--0--0--0--0--0--0--0--0--2--2--2--2--|
D|--2--2--2--2--2--2--2--2--0--0--0--0--0--0--0--|
A|--3--3--3--3--3--3--3--3--2--2--2--x--x--x--x--|
E|--x--x--x--x--x--x--x--x--3--3--3--x--x--x--x--|
          And maybe I can rest beneath your smile
   Cadd                    Em
e|--x--x--x--x--x--x--x--x--x--x--x--x--x--x--x--x--|
B|--3--3--3--3--3--3--3--3--0--0--0--0--0--0--0--0--|
G|--0--0--0--0--0--0--0--0--0--0--0--0--0--0--0--0--|
D|--2--2--2--2--2--2--2--2--2--2--2--2--2--2--2--2--|
A|--3--3--3--3--3--3--3--3--2--2--2--2--2--2--2--2--|
E|--x--x--x--x--x--x--x--x--x--x--x--x--x--x--x--x--|
                 Everybody  stumbles  sometimes and
    Am                      C
e|--x--x--x--x--x--x--x--x--x--x--x--x--x--x--x--x--x--|
B|--1--1--1--1--1--1--1--1--1--1--1--1--1--1--1--1--1--|
G|--2--2--2--2--2--2--2--2--0--0--0--0--0--0--0--0--0--|
D|--2--2--2--2--2--2--2--2--2--2--2--2--2--2--2--2--2--|
A|--0--0--0--0--0--0--0--0--3--3--3--3--3--3--3--3--3--|
E|--x--x--x--x--x--x--x--x--x--x--x--x--x--x--x--x--x--|
     needs  a  hand  to   hold............
   Cadd                     G        D
e|--x--x--x--x--x--x--x--x--x--x--x--x--x--x--x--|
B|--3--3--3--3--3--3--3--3--3--3--3--3--3--3--3--|
G|--0--0--0--0--0--0--0--0--0--0--0--2--2--2--2--|
D|--2--2--2--2--2--2--2--2--0--0--0--0--0--0--0--|
A|--3--3--3--3--3--3--3--3--2--2--2--x--x--x--x--|
E|--x--x--x--x--x--x--x--x--3--3--3--x--x--x--x--|
          So maybe you could walk with me a while
   Cadd                     G        D
e|--x--x--x--x--x--x--x--x--x--x--x--x--x--x--x--|
B|--3--3--3--3--3--3--3--3--3--3--3--3--3--3--3--|
G|--0--0--0--0--0--0--0--0--0--0--0--2--2--2--2--|
D|--2--2--2--2--2--2--2--2--0--0--0--0--0--0--0--|
A|--3--3--3--3--3--3--3--3--2--2--2--x--x--x--x--|
E|--x--x--x--x--x--x--x--x--3--3--3--x--x--x--x--|
          And maybe I can rest beneath your smile
   Cadd                    Em
e|--x--x--x--x--x--x--x--x--x--x--x--x--x--x--x--x--|
B|--3--3--3--3--3--3--3--3--0--0--0--0--0--0--0--0--|
G|--0--0--0--0--0--0--0--0--0--0--0--0--0--0--0--0--|
D|--2--2--2--2--2--2--2--2--2--2--2--2--2--2--2--2--|
A|--3--3--3--3--3--3--3--3--2--2--2--2--2--2--2--2--|
E|--x--x--x--x--x--x--x--x--x--x--x--x--x--x--x--x--|
                 Maybe  I can feel  you right here
    Am                      C
e|--x--x--x--x--x--x--x--x--x--x--x--x--x--x--x--x--x--x--x--x--x--|
B|--1--1--1--1--1--1--1--1--1--1--1--1--1--1--1--1--1--1--1--1--1--|
G|--2--2--2--2--2--2--2--2--0--0--0--0--0--0--0--0--0--0--0--0--0--|
D|--2--2--2--2--2--2--2--2--2--2--2--2--2--2--2--2--2--2--2--2--2--|
A|--0--0--0--0--0--0--0--0--3--3--3--3--3--3--3--3--3--3--3--3--3--|
E|--x--x--x--x--x--x--x--x--x--x--x--x--x--x--x--x--x--x--x--x--x--|
     beside me till'  I'm  home...... Cause it's a long trip alone.
Ending:
    G                   Bm
e|--x--x--x--x--x--x--x--x--x--x--x--x--x--x--x--|
B|--3--3--3--3--3--3--x--2--2--2--2--2--2--2--2--|
G|--0--0--0--0--0--0--x--4--4--4--4--4--4--4--4--|
D|--0--0--0--0--0--0--x--4--4--4--4--4--4--4--4--|2x
A|--2--2--2--2--2--2--x--2--2--2--2--2--2--2--2--|
E|--3--3--3--3--3--3--x--x--x--x--x--x--x--x--x--|

    G
e|--x--x--x--x--x--x--x--x-----------------------|
B|--3--3--3--3--3--3--x--2-----------------------|
G|--0--0--0--0--0--0--x--4-----------------------|
D|--0--0--0--0--0--0--x--4--HOLD-----------------|
A|--2--2--2--2--2--2--x--2-----------------------|
E|--3--3--3--3--3--3--x--2-----------------------|

This should be a little more accurate I've been working on it for a while.
If you have any questions or comments please e-mail me. Theres also a little 
part before the bridge that I have not yet figured out.
===========================================================================
comments
We did not receive enough feedback on this tab! Please rate:
print report bad tab
1 2 3 4 5
I want to post or [tab]
guest
You may want to rate the tab now too:
select rating
Please do not post tabs as comments. Select "correction" instead!