Oops, an error
Loading. Please wait.

Trying To Stop Your Leaving Tab

version 2
version 2

Intro

Interactive

3,358 views 1 this week
no commentswrite comment
1 2 3 4 5
1 last vote to show rating
add to favorites
launch autoscroll
font size
0
reset
how to read this tab
guitar tuner
Autoscroll
slow
fast
+/-
esc
set tempo
stop
Help us to improve Ultimate-Guitar.com Take our survey!
×
Author
This is my first tab. Enjoy!

E|-------------------------------------------------------------------------|
B|-------------------------------------------------------------------------|
G|---12-12-12-11--11-------------------------------------------------------|
D|----------------12---9-10-12---------------------------------------------|
A|-------------------------------------------------------------------------|
E|-------------------------------------------------------------------------|

Pedal Steel (it's arranged for guitar, so it's a little different.):

E|--19-17-15/14------------------------------------------------------------|
B|--------------17-15-13/12------------------------------------------------|
G|-------------------------------------------------------------------------|
D|-------------------------------------------------------------------------|
A|-------------------------------------------------------------------------|
E|-------------------------------------------------------------------------|

The order for this is:

Guitar
Pedal Steel
Guitar

Then you go into the chords for the rest of the song. The guitar part is repeated later 
the song at certain times.
Suggest correction
Give kudos to tab author, rate the tab!
1 2 3 4 5
comments
print report bad tab
guest
You may want to rate the tab now too:
select rating
Wanna post a correction for this tab? Suggest correction