Oops, an error
Loading. Please wait.

Wishing For A Sail bass

167 views 1 this week
no commentswrite comment
1 2 3 4 5
3 more votes to show rating
add to favorites
×
Save as Personal and add changes to this tab that will be seen only by you. Learn more ›
×
You can save this tab as Personal to edit and correct it or add notes. All changes will be seen only by you. Learn more »
launch autoscroll
font size
0
reset
guitar tuner
edit
Autoscroll
slow
fast
+/-
esc
set tempo
stop
Author
Difficulty
Wishing for a Sail bass line!! How I think its played atleast. FIGURE OUT THE STRUCTURE 
LISTENING TO THE SONG. **I think its actually played on a five string so at the
beggining of verse 1 and its variations you one won't be able to hit like two or three 
the low notes you hear in the song.**

Intro
G|--------------|
D|--7-6-7-7h6---|
A|0-----------7-|
E|--------------|x3

Verse 1
G|--------------------------------------|
D|-------------------------/7-7-66------|
A|-----------------00-44774-------99-77-|
E|00-0-020-22-2-020---------------------|

Verse 1(variation)
G|-----------------------------77889\-|
D|-------------------------/7-7-------|
A|-----------------00-44774-----------|
E|00-0-020-22-2-020-------------------|

Verse 1(2nd variation)
G|------------------------------------|
D|------------------------------------|
A|-----------------00-44774-4-455667\-|
E|00-0-020-22-2-020-------------------|

Verse 1(3rd variation)
G|------------------------------------|
D|------------------------------77889-|
A|-----------------00-44774-4-4-------|
E|00-0-020-22-2-020-------------------|

Verse 2
G|-------------------4>---4>---4>---4--|(the notes with the > after them means let them
D|--------------------4>---4>---4>---4-| keep ringing, meaning keep the fret held down.)
A|22-2-020-44-4-424-2>--22>--22>--22>--|
E|-------------------------------------|

Verse 2(variation)
G|----------------------------------|
D|-----------------2222222222222222-|
A|22-2-020-44-4-424-----------------|
E|----------------------------------|

Verse 2(2nd variation)
G|----------------------------22334-|
D|-----------------2222222222-------|
A|22-2-020-44-4-424-----------------|
E|----------------------------------|

Verse 2(3rd variation)
G|-------------------------/9999999-|
D|-----------------22222222---------|
A|22-2-020-44-4-424-----------------|
E|----------------------------------|

"Theres a devil standing on my tear"...(these notes are all harmonics)
G|---------|
D|---(5)---|
A|(5)---(7)|
E|---------|

Ending
G|------------|
D|------------|
A|4-5-6666-7~-|
E|------------|

/=slide up
\=slide down
()=Harmonics
>=let it ring

http://en.wikipedia.org/wiki/Dig_Circus(the band is no longer together ultimate guitar 
they never really got popular.)

            
            
Suggest correction
Creating personal tab
Creating personal tab
You can edit any tab online and save it as your Personal.

You can edit, replace or remove any tab part or add personal notes – all changes will be seen only by you.

Personal tabs can be accessed anytime from any device, even offline.
Learn more »
Give kudos to tab author, rate the tab!
1 2 3 4 5
comments
print report bad tab
guest
You may want to rate the tab now too:
select rating
Wanna post a correction for this tab? Suggest correction