Oops, an error
Loading. Please wait.

Rebirth Of Slick Cool Like Dat Bass Tab

version 1
version 1

Whole song

13,850 views 36 this week
no commentswrite comment
1 2 3 4 5
x 13
add to favorites
launch autoscroll
font size
0
reset
guitar tuner
Autoscroll
slow
fast
+/-
esc
set tempo
stop
Help us to improve Ultimate-Guitar.com Take our survey!
×
Author
G|----------------------------------------|x3
D|----2-1-0-------------------------------|
A|-----------44-0-------------------------|
E|-2--------------4-0-2-------------------|

G|---------2-1-0--------------------------|
D|-------2-------4------------------------|
A|---4-2----------------------------------|
E|-2---------------2----------------------|


do that throughout the whole song. im 99% positive this is right.

http://digableplanets.org/
Suggest correction
comments
print report bad tab
guest
You may want to rate the tab now too:
select rating
Wanna post a correction for this tab? Suggest correction