Oops, an error
Loading. Please wait.

Like It Was Again Tab

604 views 6 this week
no commentswrite comment
1 2 3 4 5
3 more votes to show rating
add to favorites
launch autoscroll
font size
0
reset
how to read this tab
guitar tuner
Autoscroll
slow
fast
+/-
esc
set tempo
stop
Help us to improve Ultimate-Guitar.com Take our survey!
×
Author
Difficulty
Artist: Dignan Porch
Song: Like It Was Again
Album: Deluded
Website: http://dignanporch.com/


Intro: Am, F, C (3x)

           Am                      F       C
I'm gonna call her up and make it like it was
              Am                        F   C
And when she answers her voice will be curious
         Am                    F         C
All our conversations will be spontaneous
            Am                       F       C
And when I hang up it'll be back to like it was


G          Am               F      C
It's fortunate that we have woken up
G          Am              F     C
And remembered to love each other


            Am                    F     C
And when I think of her I wont be jealous
            Am             F       C
I'll make everything just like it was


G         Am                 F      C
Roll lit candles towards the curtains
G        Am                  F     C
Start a fire in a room we're burning


              Am                  F       C
Engulfed in flames it'll be just like it was
         Am                  F       C
Burning pains it'll be just like it was


G      Am   F       C
Ooooooooh, like it was
G      Am   F       C
Ooooooooh, like it was

Solo: 

e|--------------------------------------------------------------------------|
B|--------------------------------------------------------------------------|
G|--0--0--0--0--0--0--0--2--2--2--2--2--2--2--2-----2--0--0-----------------|
D|--------------------------------------------------------------------------|
A|--------------------------------------------------------------------------|
E|--------------------------------------------------------------------------|

e|--------------------------------------------------------------------------|
B|--------------------------------------------------------------------------|
G|--0--0--0--0--0--2--2--2--2--2--2--2--2--2-----2--0--0--------------------|
D|--------------------------------------------------------------------------|
A|--------------------------------------------------------------------------|
E|--------------------------------------------------------------------------|

e|--------------------------------------------------------------------------|
B|--------------------------------------------------------------------------|
G|--0--0--0--0--0--2--2--2--2--2--2--2--2--2-----2--0--0--------------------|
D|--------------------------------------------------------------------------|
A|--------------------------------------------------------------------------|
E|--------------------------------------------------------------------------|

e|--------------------------------------------------------------------------|
B|--------------------------------------------------------------------------|
G|--0--0--0--0--0--2--2--2--2--2--2--2--2--4--2--0--0-----------------------|
D|--------------------------------------------------------------------------|
A|--------------------------------------------------------------------------|
E|--------------------------------------------------------------------------|


Am, F, C (4x)
Suggest correction
Give kudos to tab author, rate the tab!
1 2 3 4 5
comments
print report bad tab
guest
You may want to rate the tab now too:
select rating
Wanna post a correction for this tab? Suggest correction