Oops, an error
Loading. Please wait.

Dopamine bass

by Diiv
2,141 views 18 this week
no commentswrite comment
1 2 3 4 5
x 4
add to favorites
×
Save as Personal and add changes to this tab that will be seen only by you. Learn more ›
×
You can save this tab as Personal to edit and correct it or add notes. All changes will be seen only by you. Learn more »
launch autoscroll
font size
0
reset
guitar tuner
edit
Autoscroll
slow
fast
+/-
esc
set tempo
stop
Author
Difficulty
DIIV - Dopamine
First official single from Is The Is Are.
Released on September 16, 2015 by Captured Tracks.

Tabbed by Isaac Murguia, September 2015.
Originally uploaded to Ultimate-Guitar.com
Contact: www.youtube.com/user/Goadiroth

Listen here:
https://www.youtube.com/watch?v=H_9uS39YHyQ

NOTE: 1010s and 1212s = 10-10 and 12-12, not 1-0-1-0 or 1-2-1-2


INTRO/VERSE:
G|------------------------|---------------------------|
D|------------------------|---------------------------|
A|-10101010109------------|-121212121214\-5-555/9-999-|
E|-------------7-777-5555-|---------------------------| [x6]

AFTER VERSE:
G|------------------------|
D|------------------------|
A|-10-----10--------------|
E|------------------------|

Repeat INTRO/VERSE

BRIDGE: [x3]
G|--------------------------------------------------------|
D|--------------------------------------------------------|
A|-10-1010101010-14-14141414141412--------------9-9999979-|
E|---------------------------------10-1010101010----------|

G|---------------------------------------------------------------|
D|---------------------------------------------------11-11-11-11-|
A|-10-1010101010-14-14141414141412--------------9-999------------|
E|---------------------------------10-1010101010-----------------|

Repeat VERSE [x4]

BREAK:
G|----------------------------------------------------|
D|----------------------------------------------------|
A|-12-12-1212--10-1010-10101010--5-5-555-5/9-999-7777-|
E|----------------------------------------------------| [x2]

Repeat VERSE [x4] (during guitar solo)
Repeat VERSE [x4] (outro)

G|--------------|
D|--------------|
A|-10-----------|
E|--------------|

End. Please rate! :D

            
            
Suggest correction
Creating personal tab
Creating personal tab
You can edit any tab online and save it as your Personal.

You can edit, replace or remove any tab part or add personal notes – all changes will be seen only by you.

Personal tabs can be accessed anytime from any device, even offline.
Learn more »
comments
print report bad tab
guest
You may want to rate the tab now too:
select rating
Wanna post a correction for this tab? Suggest correction