Oops, an error
Loading. Please wait.

Doused Bass

version 2
version 2

Whole song

Interactive

10,505 views 36 this week
no commentswrite comment
1 2 3 4 5
x 19
add to favorites
launch autoscroll
font size
0
reset
guitar tuner
×
Best way to learn
"Doused"
Autoscroll
slow
fast
+/-
esc
set tempo
stop
Author
Difficulty
[Main Riff]
G|------------------------------------3-5----|
D|----------------------------3-3-3-3-5------|
A|--3-3-3-3-3-3-3-3-3-3-3-6-6-6-6-6-6-6------|
E|-------------------------------------------|

G|-----------------------------------------------------------|
D|-----------------------------------------------------------|
A|--3-3-3-3-3-3-3-3-3-3-3-6-6-6-6-6-6-6-1-1-1-1----1-2-------|
E|---------------------------------3-------------------------|
Suggest correction
comments
print report bad tab
guest
You may want to rate the tab now too:
select rating
Wanna post a correction for this tab? Suggest correction