Oops, an error
Loading. Please wait.

Healthy Moon tab

version 2
version 2

Whole song

by Diiv
6,082 views 66 this week
2 commentsread comments
1 2 3 4 5
x 10
add to favorites
×
Save as Personal and add changes to this tab that will be seen only by you. Learn more ›
×
You can save this tab as Personal to edit and correct it or add notes. All changes will be seen only by you. Learn more »
launch autoscroll
font size
0
reset
how to read this tab
guitar tuner
edit
Autoscroll
slow
fast
+/-
esc
set tempo
stop
DIIV - Healthy Moon
Track 13 from the album "Is The Is Are" (Captured Tracks 2016).

Tabbed by Isaac Murguia, January 2016.
Originally uploaded to Ultimate-Guitar.com
Contact: www.youtube.com/user/Goadiroth

**** CAPO on 1st Fret.
**** Tabbed relative to capo.
**** Lots of open strings ;)

[INTRO] (Both guitars repeat throughout the whole song)
  Guitar 1
e|-----------------------------|
B|-----------------------------|
G|-----------------------------|
D|-----6------6------6------6--|
A|-----------------------------|
E|-5-5----5-5----5-5----5-5----|

  Guitar 2 (starts at 00:07)
e|-------------------------------------------------|
B|-----------------5-----7-------------------------|
G|-----4-----6-----------------6-------------------|
D|-----------------------------------6-----6-----6-|
A|-0-0---0-0---0-0---0-0---0-0---0-0---0-0---0-0---|
E|-------------------------------------------------|

[CHORUS A] [x2]
e|---------------------|-------0-------0-------0-------0-|
B|---------------------|-----------------12-12-----------|
G|-----------9-9-11-11-|-13-13---11-11-----------11-11---|
D|-9-9-11-11-----------|---------------------------------|
A|---------------------|---------------------------------|
E|---------------------|---------------------------------|

e|---------------0---------------0-|----0-------0-------0-------0--------------|
B|-------0---------------0---------|------16------16------14------14----14-----|
G|-13-13---11-11---11-11---11-11---|-18------18------18------16------16----16\-|
D|---------------------------------|-------------------------------------------|
A|---------------------------------|-------------------------------------------|
E|---------------------------------|-------------------------------------------|

[CHORUS B]
e|---------------------|-------0-------0-------------------0-|
B|---------------------|--------------------------12---------|
G|-----------9-9-11-11-|-13-13---11-11---14-14-14----11-11---|
D|-9-9-11-11-----------|-------------------------------------|
A|---------------------|-------------------------------------|
E|---------------------|-------------------------------------|

e|-------0---------------0---------|----0-------0-------0-------0--------------|
B|---------------0---------------0-|------16------16------14------14----14-----|
G|-11-11---11-11---11-11---11-11---|-18------18------18------16------16----16\-|
D|---------------------------------|-------------------------------------------|
A|---------------------------------|-------------------------------------------|
E|---------------------------------|-------------------------------------------|

e|--------------------------|
B|--------------------------|
G|-----------9-9-11-11-13~~-|
D|-9-9-11-11----------------|
A|--------------------------|
E|--------------------------|

[Verse]
e|-----------------------------|
B|-----------------------------|
G|-----------------------------|
D|-----6------6------6------6--|
A|-----------------------------|
E|-5-5----5-5----5-5----5-5----|

[CHORUS A VARIATION] (01:36)
e|---------------------|-------0-------0-------0-------0-|
B|---------------------|-----------------12-12-----------|
G|-----------9-9-11-11-|-13-13---11-11-----------11-11---|
D|-9-9-11-11-----------|---------------------------------|
A|---------------------|---------------------------------|
E|---------------------|---------------------------------|

e|---------------0-|----0-------0-------0-------0--------------|
B|-------0---------|------16------16------14------14----14-----|
G|-13-13---11-11---|-18------18------18------16------16----16\-|
D|-----------------|-------------------------------------------|
A|-----------------|-------------------------------------------|
E|-----------------|-------------------------------------------|

Repeat CHORUS A [x1]

[CHORUS B VARIATION] (01:59)
e|---------------------|-------0-------0--------------0-|
B|---------------------|---------------------12---------|
G|-----------9-9-11-11-|-13-13---11-11---14-----11-11---|
D|-9-9-11-11-----------|--------------------------------|
A|---------------------|--------------------------------|
E|---------------------|--------------------------------|

e|---------------0-|----0-------0-------0-------0--------------|
B|-------0---------|------16------16------14------14----14-----|
G|-11-11---11-11---|-18------18------18------16------16----16\-|
D|-----------------|-------------------------------------------|
A|-----------------|-------------------------------------------|
E|-----------------|-------------------------------------------|

e|--------------------------|
B|--------------------------|
G|-----------9-9-11-11-13~~-|
D|-9-9-11-11----------------|
A|--------------------------|
E|--------------------------|

Repeat VERSE
Repeat CHORUS A [x2]
Repeat CHORUS B VARIATION (without the last measure)
Repeat CHORUS A VARIATION
Repeat CHORUS A [x1]

...piano...

End. Please rate! :D
Suggest correction
Creating personal tab
Creating personal tab
You can edit any tab online and save it as your Personal.

You can edit, replace or remove any tab part or add personal notes – all changes will be seen only by you.

Personal tabs can be accessed anytime from any device, even offline.
Learn more »
comments
print report bad tab
2 comments total.
0 reply
harrisonsam24 10 May 02, 2016 05:10 AM, edited at 09:12 am

anyone know what effects pedals diiv use for this track?

guest
You may want to rate the tab now too:
select rating
Wanna post a correction for this tab? Suggest correction