Oops, an error
Loading. Please wait.

How Long Have You Known tab

by Diiv
16,309 views 48 this week
no commentswrite comment
1 2 3 4 5
x 14
add to favorites
×
Save as Personal and add changes to this tab that will be seen only by you. Learn more ›
×
You can save this tab as Personal to edit and correct it or add notes. All changes will be seen only by you. Learn more »
launch autoscroll
font size
0
reset
how to read this tab
guitar tuner
edit
Autoscroll
slow
fast
+/-
esc
set tempo
stop
Author
Difficulty
DIIV - How Long Have You Known?
From their debut album "Oshin" (Captured Tracks 2012).

Tabbed by Isaac Murguia, updated September 2013.
YouTube: Goadiroth

[Intro]
  guitar 1
e|------------------------------------|---------------------------------7-|
B|------------------------------------|-----------------------------------|
G|------------------------------------|-----------------------------------|
D|------------------------------------|-----------------------------------|
A|------------------------------------|-----------------------------------|
E|------------------------------------|-----------------------------------|
  guitar 2
e|------------------------------------|-----------------------------------|
B|------------------------------------|-----------------------------------|
G|-0--------0--------0--------0-------|-2--------2--------2--------2--4-4-|
D|---2-0-2----2-0-2----2-0-2----2-0-2-|---2-0-2----2-0-2----2-0-2---------|
A|------------------------------------|-----------------------------------|
E|------------------------------------|-----------------------------------|

[Chorus]
  guitar 1
e|-7-------------------------------------7-|
B|---8-8-10--------8--8------8--10-8-------|
G|----------9--7h9-------7h9---------9-----|
D|-----------------------------------------|
A|-----------------------------------------|
E|-----------------------------------------| (x4)
  guitar 2
e|------------------------------------|------------------------------------|
B|------------------------------------|------------------------------------|
G|-0--------0--------0--------0-------|-2--------2--------2--------2-0-4-4-|
D|---2-0-2----2-0-2----2-0-2----2-0-2-|---2-0-2----2-0-2----2-0-2----------|
A|------------------------------------|------------------------------------|
E|------------------------------------|------------------------------------| (x2)

[Verse]
  guitar 1
e|-7----------------------------------|-----------------------------------|
B|------------------------------------|-----------------------------------|
G|------------------------------------|-----------------------------------|
D|------------------------------------|-----------------------------------|
A|------------------------------------|-----------------------------------|
E|------------------------------------|-----------------------------------|
  guitar 2
e|------------------------------------|-----------------------------------|
B|------------------------------------|-----------------------------------|
G|-0--------0--------0--------0-------|-2--------2--------2--------2--4-4-|
D|---2-0-2----2-0-2----2-0-2----2-0-2-|---2-0-2----2-0-2----2-0-2---------|
A|------------------------------------|-----------------------------------|
E|------------------------------------|-----------------------------------|

  guitar 1
e|------------------------------------|---------------------------------7-|
B|------------------------------------|-----------------------------------|
G|------------------------------------|-----------------------------------|
D|------------------------------------|-----------------------------------|
A|------------------------------------|-----------------------------------|
E|------------------------------------|-----------------------------------|
  guitar 2
e|------------------------------------|-----------------------------------|
B|------------------------------------|-----------------------------------|
G|-0--------0--------0--------0-------|-2--------2--------2--------2--4-4-|
D|---2-0-2----2-0-2----2-0-2----2-0-2-|---2-0-2----2-0-2----2-0-2---------|
A|------------------------------------|-----------------------------------|
E|------------------------------------|-----------------------------------|

[Chorus]
  guitar 1
e|-7-------------------------------------7-|
B|---8-8-10--------8--8------8--10-8-------|
G|----------9--7h9-------7h9---------9-----|
D|-----------------------------------------|
A|-----------------------------------------|
E|-----------------------------------------| (x4)
  guitar 2
e|------------------------------------|------------------------------------|
B|------------------------------------|------------------------------------|
G|-0--------0--------0--------0-------|-2--------2--------2--------2-0-4-4-|
D|---2-0-2----2-0-2----2-0-2----2-0-2-|---2-0-2----2-0-2----2-0-2----------|
A|------------------------------------|------------------------------------|
E|------------------------------------|------------------------------------| (x2)

[Bridge A]
  guitar 1                       (x2)
e|-8-------------------|-----------------------|-------------------8-88-10-10-12-|
B|----10-8-10----------|-/13--10-8-10----------|---------------------------------|
G|-------------999-777-|---------------999-7-5-|-/10--10-10--10-10---------------|
D|---------------------|-----------------------|---------------------------------|
A|---------------------|-----------------------|---------------------------------|
E|---------------------|-----------------------|---------------------------------| (x2)
  guitar 2 (very similar to "sometime" riff)
e|---------------------------------------|--------------------------------------|
B|---------------------------------------|----------------------------------888-|
G|-555555-7-----------555555-7------9999-|-555555-7---------------------779-----|
D|----------7777-5555----------7777------|----------7777-5555-------------------|
A|---------------------------------------|--------------------/8-88-888---------|
E|---------------------------------------|--------------------------------------| (x2)

[Bridge B]
  guitar 1          [x3]
e|------------------15-15-----------------|-------------------------------------|
B|----12----13--12------------13----13----|-13-17-17-17-15--15-13-----13--------|
G|-12----12----------------16----16----16-|-----------------------14-----14--12-|
D|----------------------------------------|-------------------------------------|
A|----------------------------------------|-------------------------------------|
E|----------------------------------------|-------------------------------------| (x2)

  guitar 2
e|---------------------------------------|--------------------------------------|
B|---------------------------------------|----------------------------------888-|
G|-555555-7-----------555555-7------9999-|-555555-7---------------------779-----|
D|----------7777-5555----------7777------|----------7777-5555-------------------|
A|---------------------------------------|--------------------/8-88-888---------|
E|---------------------------------------|--------------------------------------| 

e|----------------------------------------------|
B|-----------------888-----------------10-8-----|
G|-7777-7777-9999-9-----7777-7777-9999------9-9-|
D|----------------------------------------------|
A|----------------------------------------------|
E|----------------------------------------------| (x2)

[Interlude]
  guitar 1 (PALM MUTE)
e|---------------------|
B|----------------8888-|
G|-9999-9999-7777------|
D|---------------------|
A|---------------------|
E|---------------------| (x4)

[Verse]
  guitar 1
e|-7----------------------------------|-----------------------------------|
B|------------------------------------|-----------------------------------|
G|------------------------------------|-----------------------------------|
D|------------------------------------|-----------------------------------|
A|------------------------------------|-----------------------------------|
E|------------------------------------|-----------------------------------|
  guitar 2
e|------------------------------------|-----------------------------------|
B|------------------------------------|-----------------------------------|
G|-0--------0--------0--------0-------|-2--------2--------2--------2--4-4-|
D|---2-0-2----2-0-2----2-0-2----2-0-2-|---2-0-2----2-0-2----2-0-2---------|
A|------------------------------------|-----------------------------------|
E|------------------------------------|-----------------------------------|

  guitar 1
e|------------------------------------|---------------------------------7-|
B|------------------------------------|-----------------------------------|
G|------------------------------------|-----------------------------------|
D|------------------------------------|-----------------------------------|
A|------------------------------------|-----------------------------------|
E|------------------------------------|-----------------------------------|
  guitar 2
e|------------------------------------|-----------------------------------|
B|------------------------------------|-----------------------------------|
G|-0--------0--------0--------0-------|-2--------2--------2--------2--4-4-|
D|---2-0-2----2-0-2----2-0-2----2-0-2-|---2-0-2----2-0-2----2-0-2---------|
A|------------------------------------|-----------------------------------|
E|------------------------------------|-----------------------------------|

[Chorus]
  guitar 1
e|-7-------------------------------------7-|
B|---8-8-10--------8--8------8--10-8-------|
G|----------9--7h9-------7h9---------9-----|
D|-----------------------------------------|
A|-----------------------------------------|
E|-----------------------------------------| (x4)
  guitar 2
e|------------------------------------|------------------------------------|
B|------------------------------------|------------------------------------|
G|-0--------0--------0--------0-------|-2--------2--------2--------2-0-4-4-|
D|---2-0-2----2-0-2----2-0-2----2-0-2-|---2-0-2----2-0-2----2-0-2----------|
A|------------------------------------|------------------------------------|
E|------------------------------------|------------------------------------| (x2)



************************************

| h  Hammer-on
| /  Slide up

************************************

            
            
Suggest correction
Creating personal tab
Creating personal tab
You can edit any tab online and save it as your Personal.

You can edit, replace or remove any tab part or add personal notes – all changes will be seen only by you.

Personal tabs can be accessed anytime from any device, even offline.
Learn more »
comments
print report bad tab
guest
You may want to rate the tab now too:
select rating
Wanna post a correction for this tab? Suggest correction