Oops, an error
Loading. Please wait.

Out Of Mind tab

by Diiv
985 views 24 this week
no commentswrite comment
1 2 3 4 5
3 more votes to show rating
add to favorites
×
Save as Personal and add changes to this tab that will be seen only by you. Learn more ›
×
You can save this tab as Personal to edit and correct it or add notes. All changes will be seen only by you. Learn more »
launch autoscroll
font size
0
reset
how to read this tab
guitar tuner
edit
Autoscroll
slow
fast
+/-
esc
set tempo
stop
Author
Difficulty
About this tab version
Missing some slides, but otherwise complete. Was this info helpful? Yes No
Guitar 1:

[Intro/Verse/Middle eight]

e |----------------------------|
B |--------0-----------0-------|
G |--2h-4--------2h-4----------|
D |----------------------------|
A |----------------------------|
E |----------------------------|


Guitar 2:

[Intro]

e |----------------------------|----------------------------|
B |----------------------------|----------------------------|
G |--12----------11------------|----------------------------|
D |-----------------------12---|--9-----12------------------|
A |----------------------------|----------------------------|
E |----------------------------|----------------------------|


e |----------------------------|----------------------------|
B |----------------------------|----------------------------|
G |--12----------11------------|----------------------------|
D |-----------------------12---|--9-----12------------------|
A |----------------------------|----------------------------|
E |----------------------------|----------------------------|


e |----------------------------|----------------------------|
B |----------------------------|----------------------------|
G |--12----------11------------|-----------9----------------|
D |-----------------------12---|--9-----12------------------|
A |----------------------------|----------------------------|
E |----------------------------|----------------------------|


e |----------------------------|----------------------------|
B |----------------------------|----------------------------|
G |--11----11-11----11-11------|--11-11-------9-------------|
D |----------------------------|----------------------------|
A |----------------------------|----------------------------|
E |----------------------------|----------------------------|


[Bridge]

e |----------------------------|----------------------------|
B |----------------------------|--------------------10------|
G |--------------------9-------|--9-----11----11-11---------|
D |--9-----12----12-12---------|----------------------------|
A |----------------------------|----------------------------|
E |----------------------------|----------------------------|


e |--------------------10------|----------------------------|
B |--10----12----12-12---------|----------------------------|
G |----------------------------|--------------------9-------|
D |----------------------------|--9-----12----12-12---------|
A |----------------------------|----------------------------|
E |----------------------------|----------------------------|


e |----------------------------|--------------------10------|
B |--------------------10------|--10----12----12-12---------|
G |--9-----11----11-11---------|----------------------------|
D |----------------------------|----------------------------|
A |----------------------------|----------------------------|
E |----------------------------|----------------------------|


e |----------------------------|----------------------------|
B |----------------------------|--------10----10-10-12------|
G |--------9-----9--9--11------|--11------------------------|
D |--12------------------------|----------------------------|
A |----------------------------|----------------------------|
E |----------------------------|----------------------------|


[Verse]
     Yeah        out      of     sight  and
e |----------------------------|----------------------------|
B |----------------------------|----------------------------|
G |--12----------11------------|----------------------------|
D |-----------------------12---|--9-----12------------------|
A |----------------------------|----------------------------|
E |----------------------------|----------------------------|

     out         of       mind          but..
e |----------------------------|----------------------------|
B |----------------------------|----------------------------|
G |--12----------11------------|----------------------------|
D |-----------------------12---|--9-----12------------------|
A |----------------------------|----------------------------|
E |----------------------------|----------------------------|

     everything  I        should  do   just
e |----------------------------|----------------------------|
B |----------------------------|----------------------------|
G |--12----------11------------|-----------9----------------|
D |-----------------------12---|--9-----12------------------|
A |----------------------------|----------------------------|
E |----------------------------|----------------------------|

    comes   so    easily   to    you...       You
e |----------------------------|----------------------------|
B |----------------------------|----------------------------|
G |--11----11-11----11-11------|--11-11-------9-------------|
D |----------------------------|----------------------------|
A |----------------------------|----------------------------|
E |----------------------------|----------------------------|

     had         me           first,    Our
e |----------------------------|----------------------------|
B |----------------------------|----------------------------|
G |--12----------11------------|----------------------------|
D |-----------------------12---|--9-----12------------------|
A |----------------------------|----------------------------|
E |----------------------------|----------------------------|

     shadow               thirst        When
e |----------------------------|----------------------------|
B |----------------------------|----------------------------|
G |--12----------11------------|----------------------------|
D |-----------------------12---|--9-----12------------------|
A |----------------------------|----------------------------|
E |----------------------------|----------------------------|

     roles                reverse       My 
e |----------------------------|----------------------------|
B |----------------------------|----------------------------|
G |--12----------11------------|-----------9----------------|
D |-----------------------12---|--9-----12------------------|
A |----------------------------|----------------------------|
E |----------------------------|----------------------------|

    mind   rewinds  and  I  see  you
e |----------------------------|----------------------------|
B |----------------------------|----------------------------|
G |--11----11-11----11-11------|--11-11-------9-------------|
D |----------------------------|----------------------------|
A |----------------------------|----------------------------|
E |----------------------------|----------------------------|


[Bridge]

e |----------------------------|----------------------------|
B |----------------------------|--------------------10------|
G |--------------------9-------|--9-----11----11-11---------|
D |--9-----12----12-12---------|----------------------------|
A |----------------------------|----------------------------|
E |----------------------------|----------------------------|


e |--------------------10------|----------------------------|
B |--10----12----12-12---------|----------------------------|
G |----------------------------|--------------------9-------|
D |----------------------------|--9-----12----12-12---------|
A |----------------------------|----------------------------|
E |----------------------------|----------------------------|


e |----------------------------|--------------------10------|
B |--------------------10------|--10----12----12-12---------|
G |--9-----11----11-11---------|----------------------------|
D |----------------------------|----------------------------|
A |----------------------------|----------------------------|
E |----------------------------|----------------------------|


e |----------------------------|----------------------------|
B |----------------------------|--------10----10-10-12------|
G |--------9-----9--9--11------|--11------------------------|
D |--12------------------------|----------------------------|
A |----------------------------|----------------------------|
E |----------------------------|----------------------------|


e |----------------------------|----------------------------|
B |----------------------------|--------------------10------|
G |--------------------9-------|--9-----11----11-11---------|
D |--9-----12----12-12---------|----------------------------|
A |----------------------------|----------------------------|
E |----------------------------|----------------------------|


e |--------------------10------|----------------------------|
B |--10----12----12-12---------|----------------------------|
G |----------------------------|--------------------9-------|
D |----------------------------|--9-----12----12-12---------|
A |----------------------------|----------------------------|
E |----------------------------|----------------------------|


e |----------------------------|--------------------10------|
B |--------------------10------|--10----12----12-12---------|
G |--9-----11----11-11---------|----------------------------|
D |----------------------------|----------------------------|
A |----------------------------|----------------------------|
E |----------------------------|----------------------------|


e |-/12----14----14p12---------|----------------------------|
B |--------------------12p10---|--12----10------------------|
G |----------------------------|----------------------------|
D |----------------------------|----------------------------|
A |----------------------------|----------------------------|
E |----------------------------|----------------------------|


[Verse 2]
   I'm out       of         sight       At the
e |----------------------------|----------------------------|
B |----------------------------|----------------------------|
G |--12----------11------------|----------------------------|
D |-----------------------12---|--9-----12------------------|
A |----------------------------|----------------------------|
E |----------------------------|----------------------------|

     End         of       the line      But
e |----------------------------|----------------------------|
B |----------------------------|----------------------------|
G |--12----------11------------|----------------------------|
D |-----------------------12---|--9-----12------------------|
A |----------------------------|----------------------------|
E |----------------------------|----------------------------|

     I'll        be        fine        When it's
e |----------------------------|----------------------------|
B |----------------------------|----------------------------|
G |--12----------11------------|-----------9----------------|
D |-----------------------12---|--9-----12------------------|
A |----------------------------|----------------------------|
E |----------------------------|----------------------------|

     time  I'll   know   what  to  do         The
e |----------------------------|----------------------------|
B |----------------------------|----------------------------|
G |--11----11-11----11-11------|--11-11-------9-------------|
D |----------------------------|----------------------------|
A |----------------------------|----------------------------|
E |----------------------------|----------------------------|

     World       was        mine        But
e |----------------------------|----------------------------|
B |----------------------------|----------------------------|
G |--12----------11------------|----------------------------|
D |-----------------------12---|--9-----12------------------|
A |----------------------------|----------------------------|
E |----------------------------|----------------------------|

     I'm         too       blind        I'll
e |----------------------------|----------------------------|
B |----------------------------|----------------------------|
G |--12----------11------------|----------------------------|
D |-----------------------12---|--9-----12------------------|
A |----------------------------|----------------------------|
E |----------------------------|----------------------------|

     stay        behind                And choose
e |----------------------------|----------------------------|
B |----------------------------|----------------------------|
G |--12----------11------------|-----------9----------------|
D |-----------------------12---|--9-----12------------------|
A |----------------------------|----------------------------|
E |----------------------------|----------------------------|

    which   scrap   to   start   anew
e |----------------------------|----------------------------|
B |----------------------------|----------------------------|
G |--11----11-11----11-11------|--11-11-------9-------------|
D |----------------------------|----------------------------|
A |----------------------------|----------------------------|
E |----------------------------|----------------------------|


[Middle eight]

e |----------------------------|----------------------------|
B |--12------------------------|--------------12-10---------|
G |----------------------------|----------------------------|
D |----------------------------|----------------------------|
A |----------------------------|----------------------------|
E |----------------------------|----------------------------|

e |----------------------------|----------------------------|
B |----------------------------|----------------------------|
G |-----9-----11---------------|--------9-------------------|
D |----------------------------|----------------------------|
A |----------------------------|----------------------------|
E |----------------------------|----------------------------|

                                   (bend 1/2)
e |----------------------------|----------------------------|
B |----------------------------|----------------------------|
G |----------------------------|----------------------------|
D |--12-9-----9----------------|-----11-11b-----------------|
A |----------------------------|----------------------------|
E |----------------------------|----------------------------|


e |----------------------------|----------------------------|
B |----------------------------|----------------------------|
G |----------------------------|----------------9-----9-----|
D |--12-11----9----------------|--12-----12-----------------|
A |----------------------------|----------------------------|
E |----------------------------|----------------------------|


e |----------------------------|----------------------------|
B |--12------------------------|--------------12-14---------|
G |----------------------------|----------------------------|
D |----------------------------|----------------------------|
A |----------------------------|----------------------------|
E |----------------------------|----------------------------|


e |----------------------------|----------------------------|
B |--15-14---------------------|-----------------10---------|
G |-----------11---------------|--9-----9-----9-------------|
D |----------------------------|----------------------------|
A |----------------------------|----------------------------|
E |----------------------------|----------------------------|


e |----------------------------|----------------------------|
B |----------------------------|----------------------------|
G |----------------------------|----------------------------|
D |--12-------11-------9-------|----------------------------|
A |----------------------------|-----------12---------------|
E |----------------------------|----------------------------|


e |----------------------------|----------------------------|
B |----------------------------|----------------------------|
G |----------------------------|----------------------------|
D |----------------------------|----------------------------|
A |--10-------9----------------|----------------------------|
E |----------------------------|--12-------10---------------|

     I'm...                                   out of
e |----------------------------|----------------------------|
B |--12------------------------|--------------12-10---------|
G |----------------------------|----------------------------|
D |----------------------------|----------------------------|
A |----------------------------|----------------------------|
E |----------------------------|----------------------------|

             sight                      I'm
e |----------------------------|----------------------------|
B |----------------------------|----------------------------|
G |-----9-----11---------------|--------9-------------------|
D |----------------------------|----------------------------|
A |----------------------------|----------------------------|
E |----------------------------|----------------------------|

     out  of  mind                 (bend 1/2)
e |----------------------------|----------------------------|
B |----------------------------|----------------------------|
G |----------------------------|----------------------------|
D |--12-9-----9----------------|-----11-11b-----------------|
A |----------------------------|----------------------------|
E |----------------------------|----------------------------|


e |----------------------------|----------------------------|
B |----------------------------|----------------------------|
G |----------------------------|----------------9-----9-----|
D |--12-11----9----------------|--12-----12-----------------|
A |----------------------------|----------------------------|
E |----------------------------|----------------------------|

     Out                                      like
e |----------------------------|----------------------------|
B |--12------------------------|--------------12-14---------|
G |----------------------------|----------------------------|
D |----------------------------|----------------------------|
A |----------------------------|----------------------------|
E |----------------------------|----------------------------|

     a    light                              and
e |----------------------------|----------------------------|
B |--15-14---------------------|-----------------10---------|
G |-----------11---------------|--9-----9-----9-------------|
D |----------------------------|----------------------------|
A |----------------------------|----------------------------|
E |----------------------------|----------------------------|

     left     behind
e |----------------------------|----------------------------|
B |----------------------------|----------------------------|
G |----------------------------|----------------------------|
D |--12-------11-------9-------|----------------------------|
A |----------------------------|-----------12---------------|
E |----------------------------|----------------------------|


e |----------------------------|----------------------------|
B |----------------------------|----------------------------|
G |----------------------------|----------------------------|
D |----------------------------|----------------------------|
A |--10-------9----------------|----------------------------|
E |----------------------------|--12-------10---------------|


[Outro]

e |----------------------------|----------------------------|
B |----------------------------|----------------------------|
G |----------------------------|--------------11-11-9-------|
D |--------------12-12---------|--14-14---------------------|
A |--14-14-12-14-------12-14---|--------12-14---------------|
E |----------------------------|----------------------------|


e |----------------------------|----------------------------|
B |----------------------------|----------------------------|
G |----------------------------|--------------11-11-9-------|
D |--------------12-12---------|--14-14---------------------|
A |--14-14-12-14-------12-14---|--------12-14---------------|
E |----------------------------|----------------------------|


e |----------------------------|----------------------------|
B |----------------------------|----------------------------|
G |----------------------------|--------------11-11-9--11---|
D |--------------12-12---------|--14-14---------------------|
A |--14-14-12-14-------12-14---|--------12-14---------------|
E |----------------------------|----------------------------|


e |----------------------------|--10-10-------12-12---------|
B |--10-10-------12-12---------|----------------------------|
G |--------9--11-------9--11---|--------9--11-------9-------|
D |----------------------------|----------------------------|
A |----------------------------|----------------------------|
E |----------------------------|----------------------------|


e |----------------------------|----------------------------|
B |----------------------------|----------------------------|
G |----------------------------|--------------11-11-9-------|
D |--------------12-12---------|--14-14---------------------|
A |--14-14-12-14-------12-14---|--------12-14---------------|
E |----------------------------|----------------------------|


e |----------------------------|----------------------------|
B |----------------------------|----------------------------|
G |----------------------------|--------------11-11-9-------|
D |--------------12-12---------|--14-14---------------------|
A |--14-14-12-14-------12-14---|--------12-14---------------|
E |----------------------------|----------------------------|


e |----------------------------|----------------------------|
B |----------------------------|----------------------------|
G |----------------------------|--------------11-11-9--11---|
D |--------------12-12---------|--14-14---------------------|
A |--14-14-12-14-------12-14---|--------12-14---------------|
E |----------------------------|----------------------------|


e |----------------------------|--10-10-------12-12---------|
B |--10-10-------12-12---------|----------------------------|
G |--------9--11-------9--11---|--------9--11-------9-------|
D |----------------------------|----------------------------|
A |----------------------------|----------------------------|
E |----------------------------|----------------------------|


e |----------------------------|----------------------------|
B |--12------------------------|----------------------------|
G |----------------------------|----------------------------|
D |----------------------------|----------------------------|
A |----------------------------|----------------------------|
E |----------------------------|----------------------------|


************************************

| /  Slide up
| h  Hammer-on
| p  Pull-off

************************************
Suggest correction
Creating personal tab
Creating personal tab
You can edit any tab online and save it as your Personal.

You can edit, replace or remove any tab part or add personal notes – all changes will be seen only by you.

Personal tabs can be accessed anytime from any device, even offline.
Learn more »
Give kudos to tab author, rate the tab!
1 2 3 4 5
comments
print report bad tab
guest
You may want to rate the tab now too:
select rating
Wanna post a correction for this tab? Suggest correction