Oops, an error
Loading. Please wait.

Under The Sun tab

version 2
version 2

Whole song

by Diiv
3,568 views 36 this week
no commentswrite comment
1 2 3 4 5
x 7
add to favorites
×
Save as Personal and add changes to this tab that will be seen only by you. Learn more ›
×
You can save this tab as Personal to edit and correct it or add notes. All changes will be seen only by you. Learn more »
launch autoscroll
font size
0
reset
how to read this tab
guitar tuner
edit
Autoscroll
slow
fast
+/-
esc
set tempo
stop
Author
Difficulty
DIIV - Under The Sun
Track 2 from the album "Is The Is Are" (Captured Tracks 2016).

Tabbed by Isaac Murguia, January 2016.
Originally uploaded to Ultimate-Guitar.com
Contact: www.youtube.com/user/Goadiroth

INTRO:
  Guitar 1 (palm mute) "1010" = 10-10 not 1-0-1-0
e|----------------------------------------------|
B|---101010-----10101010----101010-----10101010-|
G|----------------------------------------------|
D|-77------77777--------7777------77777---------|
A|----------------------------------------------|
E|----------------------------------------------| [x1]

e|--------------------------------------------------|
B|-----10101010----10101010----10101010----10101010-|
G|--------------------------------------------------|
D|-7777--------7777--------7777--------7777---------|
A|--------------------------------------------------|
E|--------------------------------------------------| [x5]
  Guitar 2 (starts at 0:24)
e|-----------------------------------|
B|-----------------------------------|
G|-----------------------------------|
D|---0---0---0---0-----0---0---0---0-|
A|-77--77--77--77--7/99--99--99--99--|
E|-----------------------------------|

e|----------------------------|---------------------------------|
B|----------------------------|---------------------------------|
G|----------------------------|---------------------------------|
D|-----0-----0-----0--------0-|-----0-----0---------0-----------|
A|-1010--1010--1010--10/1414--|-1212--1212--12/17-17--16-161616-|
E|----------------------------|---------------------------------|

VERSE:
  Guitar 1
           [x3]
e|----------------------|------------------------------|
B|----------------------|------------------------------|
G|-9---7---11---6---4\2-|-2-4-4/6-6-4-2--2-4-4/6-6-4-2-|
D|----------------------|------------------------------|
A|----0---0----0---0----|------------------------------|
E|----------------------|------------------------------| [x3]
  Guitar 2 (same as gtr 2 intro)

GUITAR SOLO: [x2] (gtr 2 intro plays in background)
e|---------------------------------------|--------------------------12--10--9-------|
B|---------------------------------------|------------------------------------12-10-|
G|--------------------------1111-1212-14-|------------------------------------------|
D|-----------1111-1212-1414--------------|-----------1111-1212-1414-----------------|
A|-1212-1414-----------------------------|-1212-1414--------------------------------|
E|---------------------------------------|------------------------------------------|

e|---------------------------------------|------------------------------------|
B|---------------------------------------|------------------------------------|
G|--------------------------1111-1212-14-|--------------------------1111-1212-|
D|-----------1111-1212-1414--------------|-----------1111-1212-1414-----------|
A|-1212-1414-----------------------------|-1212-1414--------------------------|
E|---------------------------------------|------------------------------------|

e|----------------------------------14--15-|
B|-------12------12-----14--15--17---------|
G|-12/14----1414----1414--14--14--14--14---|
D|-----------------------------------------|
A|-----------------------------------------|
E|-----------------------------------------|

Repeat VERSE

BRIDGE A:
  Guitar 1
e|-----------------------|-----------------------|
B|-----------------------|-----------------------|
G|----11------11------11-|----11------11------11-|
D|-------0-------0-------|-------0-------0-------|
A|-14------14------14----|-14------14------14----|
E|-----------------------|-----------------------| [x6]
  Guitar 2
e|-------------------|-------------------|
B|-------------------|-------------------|
G|-------------------|-------------------|
D|---------------7---|---------------7---|
A|--7-7-7-7--7-7---5-|--7-7-7-7--7-7---5-|
E|-0-0-0-0--0-0-0-0--|-0-0-0-0--0-0-0-0--| [x6]

BRIDGE B: [x2] "1111" = 11-11 not 1-1-1-1
e|-------------------------------------------------|
B|-----0-----0-----0-----0-----0-----0-----0-----0-|
G|-1111--1111--1111--1111--1111--1111--1111--1111--|
D|-------------------------------------------------|
A|-------------------------------------------------|
E|-------------------------------------------------|

e|---------------------------------|
B|---0---0---0---0---0---0---0---0-|
G|-66--66--66--66--66--66--66--66--|
D|---------------------------------|
A|---------------------------------|
E|---------------------------------|

Repeat VERSE [x2]

OUTRO SOLO: (starts at 3:30)
e|----------------------------------12-14-15-|
B|-------------------------12-14-15----------|
G|----------------11-12-14-------------------|
D|-------11-12-14----------------------------|
A|-12-14-------------------------------------|
E|-------------------------------------------|

e|-17-17-14-15-12-14----12-------------------|
B|-------------------15----14-15-12-14----12-|
G|-------------------------------------14----|
D|-------------------------------------------|
A|-------------------------------------------|
E|-------------------------------------------|

e|----------------------------------------------------------|
B|----------------------------------------------------------|
G|-12-14-11-12----11----------------------------------------|
D|-------------14----12-14-11-12----11----------11-12-14----|
A|-------------------------------14----12-10-12----------12-|
E|----------------------------------------------------------|

End. Please rate! :D

            
            
Suggest correction
Creating personal tab
Creating personal tab
You can edit any tab online and save it as your Personal.

You can edit, replace or remove any tab part or add personal notes – all changes will be seen only by you.

Personal tabs can be accessed anytime from any device, even offline.
Learn more »
comments
print report bad tab
guest
You may want to rate the tab now too:
select rating
Wanna post a correction for this tab? Suggest correction