Oops, an error
Loading. Please wait.

Wait Tab

by Diiv
2,269 views 9 this week
no commentswrite comment
1 2 3 4 5
accurate
x 5
add to favorites
launch autoscroll
font size
0
reset
how to read this tab
guitar tuner
Autoscroll
slow
fast
+/-
esc
set tempo
stop
Help us to improve Ultimate-Guitar.com Take our survey!
×
Author
Difficulty
novice
DIIV - Wait (Oshin 2012 // Captured Tracks)

Tabbed by Isaac Murguia, November 2012.
YouTube: Goadiroth

Please rate/comment!

INTRO (guitar 2):
e|---------------------|----------------------|
B|---------------------|----------------------|
G|-7777-7777-7777-9999-|-5555-5555-5555-----5-|
D|---------------------|----------------7-----|
A|---------------------|----------------------|
E|---------------------|----------------------| [x2]

LEAD (guitar 1):
      [x3]                        [x2]
e|-------------|-12-12-12-12-|-------------|---------------------|
B|-15-15-15-15-|-------------|-13-13-13-13-|------------------13-|
G|-------------|-------------|-------------|-12-12-12-12-14------|
D|-------------|-------------|-------------|---------------------|
A|-------------|-------------|-------------|---------------------|
E|-------------|-------------|-------------|---------------------| [x2]

e|------------------------------------------------12-1212-----------|
B|-12-1212--121212-13131313-1515--------------------------15-13--13-|
G|-------------------------------121214-1414-1414-------------------|
D|------------------------------------------------------------------|
A|------------------------------------------------------------------|
E|------------------------------------------------------------------| [x2]

VERSE (intro variation):
e|---------------------|----------------------|
B|---------------------|----------------------|
G|-7777-7777-7777-9999-|-5555-5555-5555-5555--|
D|---------------------|----------------------|
A|---------------------|----------------------|
E|---------------------|----------------------| [x6]

** Cole starts playing something on 5th repetition of VERSE (1:03)
   But I don't know what it is... **

Repeat LEAD (1:16)

OUTRO A: (listen for rhythm)
e|-----------------------------------------|
B|-----------------------------------------|
G|-7777-7777-7777-9999-5555-5555-5555-5555-|
D|-7777-7777-7777-9999-5555-5555-5555-5555-|
A|-5555-5555-5555-7777-3333-3333-3333-3333-|
E|-----------------------------------------| [x4]

OUTRO B: ("oohhhhh..." / 2:06)
e|-----------------------------------------|
B|-----------------------------------------|
G|-7777-7777-7777-7777-5555-5555-5555-5555-|
D|-7777-7777-7777-7777-5555-5555-5555-5555-|
A|-5555-5555-5555-5555-3333-3333-3333-3333-|
E|-----------------------------------------|

e|-----------------------------------------|
B|-----------------------------------------|
G|-7777-7777-7777-9999-5555-5555-5555-5555-|
D|-7777-7777-7777-9999-5555-5555-5555-5555-|
A|-5555-5555-5555-7777-3333-3333-3333-3333-|
E|-----------------------------------------|

Repeat OUTRO A [x4]

Guitar 1 continues playing chords
Guitar 2 plays this (2:44):

e|-x--x--x--x--x--x--x--x--|
B|-x--x--x--x--x--x--x--x--|
G|-12-12-12-12-12-12-12-12-|
D|-x--x--x--x--x--x--x--x--|
A|-x--x--x--x--x--x--x--x--|
E|-x--x--x--x--x--x--x--x--| [x8]

** I play the 12th fret with my middle finger
   And naturally mute the other strings with my index finger
   On the 11th fret **

Repeat OUTRO A [x2]

END:
e|----------------|
B|----------------|
G|-7--------------|
D|-7--------------|
A|-5--------------|
E|----------------| enjoy...
Suggest correction
comments
print report bad tab
guest
You may want to rate the tab now too:
select rating
Please do not post tabs as comments. Select "correction" instead!