Oops, an error
Loading. Please wait.

Worst Comes The Worst tab

8,075 views 15 this week
5 commentsread comments
1 2 3 4 5
x 6
add to favorites
×
Save as Personal and add changes to this tab that will be seen only by you. Learn more ›
×
You can save this tab as Personal to edit and correct it or add notes. All changes will be seen only by you. Learn more »
launch autoscroll
font size
0
reset
how to read this tab
guitar tuner
edit
Autoscroll
slow
fast
+/-
esc
set tempo
stop
#----------------------------------PLEASE NOTE--------------------------------#
#This file is the author's own work and represents their interpretation of the#
#song. You may only use this file for private study, scholarship, or research.#
#-----------------------------------------------------------------------------#
#-- File created with Instab - http://www.pconline.com/~smcarey/instab.html --#
#-----------------------------------------------------------------------------#

Author/Artist: Dilated peoples
Title: Worst Comes The Worst
Album: Piano Man
Transcribed by: Jonathan Meisburg
Email: pbpaintball@yahoo.com
Aim:snake4400

Listen to the song to get the tempo and how its played:
The same riff is played throughout the whole song....


------------11h14p11----16-14-11----11h14p11---11-9-7-6----6h7p6--------------
-----4------------------16-14-9-----------------9-7-7-7-----------------------
-4h6--------------------------------------------------------------------------Repeat forever
-------6----------------------------------------------------------------------
------------------------------------------------------------------------------
------------------------------------------------------------------------------
Suggest correction
Creating personal tab
Creating personal tab
You can edit any tab online and save it as your Personal.

You can edit, replace or remove any tab part or add personal notes – all changes will be seen only by you.

Personal tabs can be accessed anytime from any device, even offline.
Learn more »
comments
print report bad tab
5 comments total. Showing first comments.
0 reply
coconutz2 10 Mar 01, 2002 07:00 PM

That is ill bro, Do you have any other hip hop tabs. Maybe check some dj shadow and common for some dope tabs. Peace

0 reply
moelaz 10 Apr 08, 2002 08:00 PM

Here's another variation:e ------14--12--9---9h12 ------------------------------------------
-------------------------------14-12---------------------------------
-------------------------------------------14-13 13 13h14---------
---------------------------------------------------------------(14)---
-----------------------------------------------------------------------
E ----------------------------------------------------------------------
This sounds simliar and the dilated peoples version is poor. Ludacris- Growing Pains is much better. Age

0 reply
Stoned picker 10 Aug 22, 2009 03:30 PM

this is good but 1st it goes 16 14 11 on the high e x

guest
Wanna post a correction for this tab? Suggest correction