Oops, an error
Loading. Please wait.

Xodo Da Baiana Tab

version 1
version 1

Whole song

Interactive

1,581 views 12 this week
no commentswrite comment
1 2 3 4 5
please rate
add to favorites
launch autoscroll
font size
0
reset
how to read this tab
guitar tuner
Autoscroll
slow
fast
+/-
esc
set tempo
stop
Help us to improve Ultimate-Guitar.com Take our survey!
×
Contributor
N-D 5,154
  tuning - D A D G B E

  2/4   Q=84

    S E   S S E   S   S E   S S S S S   S E   S S E   S   S E   S E  E
||------------------|---3-------5-5-5-|-----------------|---3-------^5-|
||o---6-------6-----|---3-------5-5-5-|---6-------6-----|---3-------^5-|
||----7-------7-----|---3-------6-6-6-|---7-------7-----|---3-------^6-|
||----7-------7-----|-----------7-7-7-|---7-------7-----|-----------^7-|
||o-----5-0---------|---------0-------|-----5-0---------|---------0----|
||--0-------3---3-4-|-5---5-6---------|-0-------3---3-4-|-5---5-6------|
    E   S S E   S S   E   S S Q         E   S S E   S S   E   S S Q
 

  S E S S S S S   S S S S  a  +S   E  S    +S  S S S S E S   +S  S S S S S S S
|-----------5-6-|-5---5-9S12-(12)-------|--------------6-5-|-(5)---------------|
|---3-5-6-8-----|---9-------------10----|------6---5-6-----|-----8-5-------5---|
|---------------|--------------------12-|-(12)---7---------|---------6---6-----|
|---0-----------|-----------------------|------------------|-----------7-----7-|
|---------------|-0---------------------|------------------|--0----------------|
|-0-------------|-----------------------|---0--------------|-------------------|
  H               H                         H                 H
 

  S E S S S S S   S S S S  a  +S   E  S    +S  S S S S E S   +S  S S S S S S S
|-----------5-6-|-5---5-9S12-(12)-------|--------------6-5-|-(5)---------------|
|---3-5-6-8-----|---9-------------10----|------6---5-6-----|-----8-5-----------|
|---------------|--------------------12-|-(12)---7---------|---------6---------|
|---0-----------|-----------------------|------------------|-----------7-8-7-5-|
|---------------|-0---------------------|------------------|--0----------------|
|-0-------------|-----------------------|---0--------------|-------------------|
  H               H                         H                 H
 

  S S S S  S E S   +S  S S S Q         S S S S  S E S   +S  S S S S S E
|---5-5-5--8-8-8-|-(8)-6-------------|----------6-6-6-|-(6)-5-------------|
|---------^7-----|-------8-----------|---8-8-8-^5-----|-------6-----------|
|---------^8-----|--0------7-----0---|---------^5-----|---------7-5-------|
|-4-------^7-----|-----------8-7-----|---------^5-----|-------------7---0-|
|----------------|-----------------8-|-7--------------|--8------------8---|
|----------------|-------------------|----------------|-------------------|
  Q        Q        Q        S S S S   Q        Q        Q        E   S S
 

                 1.
  S S S S S E S   +S  S S S S E S   S S S S E E   S  S S S Q
|---6-6-6-5-5-3-|-(3)-1-------1-0-|-0-----0-----|--------5--------||
|---------------|-------3---------|---2-----3-0-|-2--------------o||
|---------------|---------2-------|-----2-------|----1-2---2------||
|---------------|--0--------3-----|-2-----------|------------<7>--||
|-4-------0-----|-----------------|-------------|-0--------------o||
|---------------|-----------------|---------2---|------------<7>--||
  Q       Q        Q        Q       Q       Q     Q.          E
 

  2.,D.C.
                                   To Coda
   S  S S S E E   S S S S E E   S S S S Q      S S S S  S E  S
|-(3)-1-------3-|-1---------0-|-------------||-----------------|
|-------3-----4-|---3---------|-3-----------||---7-----10---10-|
|---------2-3---|-----2---0---|---1h2-------||-----7-----------|
|---------------|-0-----3-----|-0-----3-0---||-------7----7----|
|--0------------|---------0---|-----------0-||-----------------|
|---------------|-------------|-------------||-0---------------|
   E.     S Q     Q       Q     Q       E E    H
 

   +S  E S Q     S S S S S E S   +S   E  S  Q     S  S  S  S  S  S  E
|--------------|---------7---7-|-(7)------------|---14-------12-10-15-|
|-(10)-8-7-8---|---8-----------|-----10--9-10---|------10-------------|
|------9-8-9---|-----9---------|-----11-10-11---|---------11----------|
|------------7-|-------7---7---|----------------|---------------------|
|---0----------|-0-------------|--------------0-|---------------------|
|--------------|---------------|--0-------------|-0-------------------|
    Q.       E   H                Q.          E   H
 

   +S   S  S  S  S  S  S S   S  S S  S S  E  S
|-(15)-14-12---------------|------9-12-9-------|
|------------15-14-12-10-9-|-8-10--------10----|
|--------------------------|----------------11-|
|--------------------------|-------------------|
|---0----------------------|-0-----------------|
|--------------------------|-------------------|
    H                        H
 

   S   S  S  S  Q     S S S S  S E  S
|-----10-------10---|-----------------|
|--------10---------|---7-----10---10-|
|-11--------11------|-----7-----------|
|-------------------|-------7----7----|
|-----------------0-|-----------------|
|--0----------------|-0---------------|
   Q.             E   H
 

   +S  E S Q     S S S S S E S   +S   E  S  Q     S  S S S  S  S S S
|--------------|---------7---7-|-(7)------------|------7-------9-----|
|-(10)-8-7-8---|---8-----------|-----10--9-10---|----8-----10------8-|
|------9-8-9---|-----9---------|-----11-10-11---|--------------------|
|------------7-|-------7---7---|----------------|--------------------|
|---0----------|-0-------------|--------------0-|--------0-(0)-------|
|--------------|---------------|--0-------------|-5--------------5---|
    Q.       E   H                Q.          E   E.     S +E    E
 

  S  S S S  S  S S S   S  S S S  S  S S S
|------5-------7-----|------3-------5-----|
|----7------8------7-|----5------7------5-|
|--------------------|--------------------|
|--------------------|--------------------|
|--------------------|--------------------|
|-4------5-(5)---4---|-2------4-(4)---2---|
  E.     S +E    E     E.     S +E    E
 

  S S S S S S S S   S  S S S  S  S S S
|-----------------|------7-------9------|
|---7---7---7---7-|----8-----10------8--|
|---7---7---7---7-|---------------------|
|---------0---7---|---------------------|
|-----0-----------|--------0-(0)--------|
|-0---------------|-5--------------5----|
  E   E   E   E     E.     S +E    E
 

  S  S S S  S  S S S   S  S S S  S  S S S
|------5-------7-----|------3-------5-----|
|----7------8------7-|----5------7------5-|
|--------------------|--------------------|
|--------------------|--------------------|
|--------------------|--------------------|
|-4------5-(5)---4---|-2------4-(4)---2---|
  E.     S +E    E     E.     S +E    E
 

    D.C. al Coda     &
  S S S S S S S S    S E   S S E   S
|-----------------||------------------|
|---7---7---7---7-||---6-------6------|
|---7---7---7---7-||---7-------7------|
|---------0-------||---7-------7------|
|-----0-------0---||-----5-0----------|
|-0---------------||-0-------3---3-4--|
  E   E   E   E      E   S S E   S S
 

  S E   S S S S S   S E   S S E   S   S E   S E E     H
|---3-------5-5-5-|-----------------|---3-------9-|-^10----||
|---3-------5-5-5-|---6-------6-----|---3-------8-|-^10----||
|---3-------6-6-6-|---7-------7-----|---3-------9-|-^10----||
|-----------7-7-7-|---7-------7-----|-------------|--------||
|---------0-------|-----5-0---------|---------0---|--------||
|-5---5-6---------|-0-------3---3-4-|-5---5-6-----|---0----||
  E   S S Q         E   S S E   S S   E   S S Q       H
comments
We did not receive enough feedback on this tab! Please rate:
print report bad tab
1 2 3 4 5
I want to post or [tab]
guest
You may want to rate the tab now too:
select rating
Please do not post tabs as comments. Select "correction" instead!