Oops, an error
Loading. Please wait.

Thirteen Thirtyfive Tab

10,045 views 6 this week
no commentswrite comment
1 2 3 4 5
excellent!
x 6
add to favorites
launch autoscroll
font size
0
reset
how to read this tab
guitar tuner
Autoscroll
slow
fast
+/-
esc
set tempo
stop
Help us to improve Ultimate-Guitar.com Take our survey!
×
Author
Capo
1st fret
Capo 1 
First tab! May not be very accurate!



(snap your fingers - Off-beat)
Strongest taste
loudest drop
head is filled 
the thought, unlocked

Strongest taste
loudest drop
head is filled 
the thought, unlocked



(strum once)
Em
Strongest taste
D
loudest drop
          Bm
head is filled 
                 C
the thought, unlocked


Em
Strongest taste
D
loudest drop
          Bm        C
head is filled 




|-----8-6----------------|
|--6-------8----6-8-6--6-|
|-------------8-------8--|
|------------------------|
|------------------------|
|------------------------| (2x)

Em
you'd be thirteen
    D
I'd be thirty-five
Bm                       C
gone to find a place for us to hide
      Em
be together, but alone
       D                   Bm  C
as the need for it has grown

(Repeat)



(Strum once)

Em    D     Bm       C
    cha cha, cha cha, cha cha
Em    D     Bm       C
    cha cha, cha cha


Em
a cave or a shed
D
a car or a bed
Bm
a hole in the ground
     C
or a burial mound
  Em
a bush or a tree
       D               Bm         C   
or the aegean sea, will do for me 



Em    D     Bm       C
    cha cha, cha cha, cha cha
Em    D     Bm       C
    cha cha, cha cha


Pluck the chords this way:

|------0--0--------2--2------------------0--0-|
|------0--0--------3--3-------3--3-------1--1-|
|----0-----------2------------4--4------------|
|-------------0-------------4----------2------|
|------------------------2----------3---------|
|-0-------------------------------------------|

Em             D             Bm   C
I can say that you look pretty
                      Em       D
you turn my legs into spaghetti
                     Bm   C
you set my heart on fire


    Em
For you I found a vent
       D                   Bm
in the bottom of a coal mine
                       C                      Em
just enough space for your hands in the inside
         D
If you go
   Bm          C
do let me know




|-----8-6----------------|
|--6-------8----6-8-6--6-|
|-------------8-------8--|
|------------------------|
|------------------------|
|------------------------| (2x)

Em 
You'd be thirteen
    D
I'd be thirty-five
Bm                       C
gone to find a place for us to hide




(strum once)

Em
A den or a dessert
D
perhaps an ink squirt
  Bm                   C
a cellar, a wishing well, a war
      Em      D     Bm      C
or a guarantee will do for me




Pluck the chords this way:

|------0--0--------2--2------------------0--0-|
|------0--0--------3--3-------3--3-------1--1-|
|----0-----------2------------4--4------------|
|-------------0-------------4----------2------|
|------------------------2----------3---------|
|-0-------------------------------------------|

Em
For you I found a cell
       D                 Bm
on the top floor of a prison
                       C                   Em
just enough space for you to fit your feet in
        D
if you go
   Bm          C
do let me know        
(Repeat)



 Em                      D
   I go running with a heart on fire
 Bm                      C
   I go running with a heart on fire
(Repeat twice more)

 Em                    D          Em(strum once)
I go running with a heart on fire       art on fire       
Suggest correction
comments
print report bad tab
guest
You may want to rate the tab now too:
select rating
Wanna post a correction for this tab? Suggest correction