Oops, an error
Loading. Please wait.

Ocarina Tab

version 1
version 1

Intro

Whole song

2,386 views 18 this week
no commentswrite comment
1 2 3 4 5
please rate
add to favorites
launch autoscroll
font size
0
reset
how to read this tab
guitar tuner
Tab Pro tools
  • play this tab
  • loop segment
  • change instrument
  • show fretboard
  • metronome
Autoscroll
slow
fast
+/-
esc
set tempo
stop
Contributor
     Ocarina - Dimitri Vegas, Like Mike & Wolfpack

So this is my first submit to Ultimate-Guitar.com 
I figured I wanted to submit this tab as there were no other tabs for this song. 
It is probably not 100% accurate, but atleast it sounds  like the original song :)

Tabbed by: SliceX
E-mail: Simen-x@hotmail.com 
(Feel free to mail me your thoughts/impressions)

Tuning: Standard tuning 
Capo: None
Skill level: Very easy (1-string song)

e|-----------------------------|
B|1~-3~-3-4--------------------|
G|----------0-5-3-1-8-7h8-3h5--|
D|-----------------------------|
A|-----------------------------|
E|-----------------------------|

e|---------------------------------------|
B|1~-6-3~--------------------------------|
G|-------3-7-8\12~-(12)-13-12-10-8-7-5~--|
D|---------------------------------------|
A|---------------------------------------|
E|---------------------------------------|


e|-------------------------------------------|
B|1-1--3-3--5--6--8-1-1-1-1-3-3-5-6-8-10-10--|
G|-------------------------------------------|
D|-------------------------------------------|
A|-------------------------------------------|
E|-------------------------------------------|

That should pretty much be it!
-Enjoy :)

************************************

| /   slide up
| \   slide down
| h   hammer-on
| p   pull-off
| ~   vibrato
| +   harmonic
| x   Mute note
| b   Bend
| pb  Pre-bend
| br  Bend release
| pbr Pre-bend release
| brb Bend release bend

************************************
comments
We did not receive enough feedback on this tab! Please rate:
print report bad tab
1 2 3 4 5
I want to post or [tab]
guest
You may want to rate the tab now too:
select rating
Please do not post tabs as comments. Select "correction" instead!