Oops, an error
Loading. Please wait.

A Succubus In Rapture Tab

version 2
version 2

Whole song

Interactive

3,463 views 3 this week
no commentswrite comment
1 2 3 4 5
please rate
add to favorites
launch autoscroll
font size
0
reset
how to read this tab
guitar tuner
Autoscroll
slow
fast
+/-
esc
set tempo
stop
Help us to improve Ultimate-Guitar.com Take our survey!
×
Contributor
Band:  (DIMMU BORGIR)
Album: (ENTHRONE DARKNESS TRIUMPHANT)
Song:  (A SUCCUBUS IN RAPTURE)

Copyright (c)  (NUCLEAR BLAST) (1997)
Version 1.0 - (2004)

Transcribed By: (DIABOLO080)
Email:          (jorge_geografia2001@hotmail.com)


.  - palm mute           /  - slide up to
\  - slide down to       ~  - vibrato
h  - hammer on           b  - Bend
p  - pull off            Suffixes for bend
t  - tap                 f  - full bend    h - half bend
ph - pinched harmonic    q  - quarter bend t - tap bend
*  - see comment         ^  - Hold bend    r release bend
x  - Stuccatto           ~  - vibrato bend
,  - slight palm mute    () - ghost note, sustained note
"  - tremolo note        <> - Trill

Tunning E A D G B E

INTRO KEYBOARD


RIFF 1 (4 times)
|-----------------------|
|-----------------------|
|-----------------------|
|------5----------------|
|------3--------5-------|
|---------------3-------|


RIFF 2 (4 times)
|---------------------------------------------------|
|---------------------------------------------------|
|---------------------------------------------------|
|---------------------------------------------------|
|--------7--------10--------5----------12-----------|
|--------5--------8---------3----------10-----------|



KEYBOARD PART



RIFF 3 (1 time)
|-----------------------|
|-----------------------|
|-----------------------|
|-----------------------|
|--12-12-12-12-12-------|
|--10-10-10-10-10-------|


RIFF 4 (4 times)
|-----------------------------------------------------------------------------|
|-----------------------------------------------------------------------------|
|-----------------------------------------------------------------------------|
|-----------------------------------------------------------------------------|
|--7-----7------7--10----10-----10-5-----5------5--12---------12----------12--|
|--5-55555--55555--8-88888--88888--3-33333--33333--10-1010101010--1010101010--|
PM   ....   ....     ....   ....     ....   ....       . . . .     . . . .


RIFF 5 (6 times)
|------------------------------------------|
|------------------------------------------|
|-------------------------------7-9-10-----|
|--------10--------7--------5--------------|
|--7-7-7-----5-5-5----3-3-3----------------|
|------------------------------------------|


RIFF 6 (2 times)
|--------------------------------------|
|--------------h-----------------------|
|----10-10-9-7-9-7-----------h---------|
|---------------------10-9-7-9-7-------|
|--------------------------------------|
|--------------------------------------|



KEYBOARD PART


THEN RIFF 3 AGAIN (1 time)
|-----------------------|
|-----------------------|
|-----------------------|
|-----------------------|
|--12-12-12-12-12-------|
|--10-10-10-10-10-------|


RIFF 4 (4 times)
|-----------------------------------------------------------------------------|
|-----------------------------------------------------------------------------|
|-----------------------------------------------------------------------------|
|-----------------------------------------------------------------------------|
|--7-----7------7--10----10-----10-5-----5------5--12---------12----------12--|
|--5-55555--55555--8-88888--88888--3-33333--33333--10-1010101010--1010101010--|
PM   ....   ....     ....   ....     ....   ....       . . . .     . . . .


RIFF 1 (4 times)
|-----------------------|
|-----------------------|
|-----------------------|
|------5----------------|
|------3--------5-------|
|---------------3-------|



ANOTHER KEYBOARD PART


RIFF 7 (2 times)
|-------------------------------------------------------------------|
|-------------------------------------------------------------------|
|--------------h-------h--------------------h-----------------------|
|-7---9-10-9-7-9-7---7-9-10-9-7-3---3-5-3-2-3-2-2-----------h-------|
|---------------------------------------------------3-5-3-2-3-2-0---|
|-------------------------------------------------------------------|


RIFF 8 (4 times)
|-------------------------------------------------------------------|
|---------------------------------------h---------------------------|
|-7-9-7--5-7-9---7-9-10-9-7-5---5-7-5-4-5-4-------------------------|
|---------------------------------------------7-9-7-----------------|
|---------------------------------------------------8-7-------------|
|-------------------------------------------------------------------|


SOLO (SLOWLY)
|----------------------------------------------------------|
|-------------------------15-13-----h----------------------|
|-14----14-16-17----16-17-------16-17-16-14-12-14-16-14----|
|-------------------------------------------------------14-|
|----------------------------------------------------------|
|----------------------------------------------------------|


|------------------------------------h--------------------h---------|
|--------------------------------12-13-12-------12-13-12-13-12----12|
|--------------------------12-14----------14-------------------14---|
|-12-14-15-14--12-14-12-14------------------------------------------|
|-------------------------------------------------------------------|
|-------------------------------------------------------------------|

|-----------------h-----------------------p-------------------------|
|-13-12-------12-13-12----12-13----12-10-12-10----10----------------|
|----------12----------------------------------12-------12-14----14-|
|-------14-------------14-------------------------------------15----|
|-------------------------------------------------------------------|
|-------------------------------------------------------------------|


|-------------------------------------------------------------------|
|-------------------------------------------------------------------|
|-------------------------------------------------------------------|
|-14-15-12-14----12-------------------------------------------------|
|-------------15----14-15-12-12-12-10-8-7--------h----------7-8-7---|
|-----------------------------------------10-8-7-8-10----10---------|

                                                              h
|-------------------------------------------------------5-7-7-8-7-|
|----------------------------------------------5-8----8-----------|
|-------------------------------h--------4-5-7--------------------|
|--7-----------------------h--5-7----5-7--------------------------|
|----7----------------h--5-7--------------------------------------|
|------10-8-7-5-8---5-8-------------------------------------------|

    h                           h                          h
|-5-7-5-3-5------5-7-8----7-5-5-7-5-3-5---------------h--7-8-7------|
|-----------5-----------------------------------h--8-10--------10-8-|
|-----------------------------------------h--9-10-------------------|
|---------------------------------------7-9-------------------------|
|-------------------------------------------------------------------|
|-------------------------------------------------------------------|

                               h               h
|-------------------7----7-8-7-8-7----7----12-13-12--10-12----12--|
|-----8-10-10-10------10-----------10----------------------13-----|
|-9-9-------------------------------------------------------------|
|-----------------------------------------------------------------|
|-----------------------------------------------------------------|
|-----------------------------------------------------------------|


|----------------------------------------------------|
|-12-13----------------------------------------------|
|-------12-12/14-------------------------------------|
|----------------------------------------------------|
|----------------------------------------------------|
|----------------------------------------------------|

RIFF 5 (UNTIL FADE OUT)
|------------------------------------------|
|------------------------------------------|
|-------------------------------7-9-10-----|
|--------10--------7--------5--------------|
|--7-7-7-----5-5-5----3-3-3----------------|
|------------------------------------------|


END
Suggest correction new What's this?
You can suggest a correction to this tab. Community and Mods will review your correction and vote to approve or reject it.
comments
We did not receive enough feedback on this tab! Please rate:
print report bad tab
1 2 3 4 5
guest
You may want to rate the tab now too:
select rating
Please do not post tabs as comments. Select "correction" instead!