Oops, an error
Loading. Please wait.

A Succubus In Rapture Tab

version 3
version 3

Whole song

Interactive

268 views 1 this week
no commentswrite comment
1 2 3 4 5
please rate
add to favorites
launch autoscroll
font size
0
reset
how to read this tab
guitar tuner
Autoscroll
slow
fast
+/-
esc
set tempo
stop
Help us to improve Ultimate-Guitar.com Take our survey!
×
Author
Difficulty
intermediate
Song: A Succubus in Rapture
Artisti: Dimmu Borgir
Album: Enthrone Darkness Triumphant

Tabbed by: Mint
e-mail: mato.reberc@gmail.com
Date: 30. 7. 2010

This is almost same than other versions but tabbed different way. Try it out.
It may be better and sometimes more accurate. When tabbing I helped myself
with tabs written by DIABOLO080.

Tuning is standard E (E A D G B e).

h = hammer on
p = pull off
. = palm mute

When learning you can help yourself with that video:
http://www.youtube.com/watch?v=3H8WuUJyxik&feature=related

You can play this instead of the slide during the
keyboard intro at the start of the song.
e|-----------------------|
B|-----------------------|
G|-----------------------|
D|-----------------------|
A|--5--5--5--5--5--------|
E|--3--3--3--3--3--------|


RIFF 1 (4 times)
e|-----------------------|
B|-----------------------|
G|-----------------------|
D|------5----------------|
A|------3--------5-------|
E|---------------3-------|


RIFF 2 (4 times)
e|---------------------------------------------------|
B|---------------------------------------------------|
G|---------------------------------------------------|
D|-----------------5--------------------7------------|
A|--------7--------3---------5----------5------------|
E|--------5------------------3-----------------------|


KEYBOARDS


RIFF 3 (1 time)
e|-----------------------|
B|-----------------------|
G|-----------------------|
D|-----------------------|
A|--5--5--5--5--5--------|
E|--3--3--3--3--3--------|


RIFF 4 (4 times)
e|--------------------------------------------------------------------------|
B|--------------------------------------------------------------------------|
G|--------------------------------------------------------------------------|
D|------------------5-----5-----5------------------7-----7------7-----------|
A|--7-----7------7--3-33333--33333--5-----5-----5--5-55555--55555-----------|
E|--5-55555--55555------------------3-33333-33333---------------------------|
  PM  ....   ....     ....   ....     ....   ....    ....   ....


RIFF 5 (6 times)
e|----------------------------------------------|
B|----------------------------------------------|
G|-------------------------------7-9-10-10-10---|
D|------10--------7--------5--------------------|
A|--7---------5--------3------------------------|
E|----------------------------------------------|


RIFF 6 (2 times)
e|--------------------------------------|
B|--------------------------------------|
G|----10-10-9-7h9p7---------------------|
D|-7-------------------10-9-7h9-7-------|
A|--------------------------------------|
E|--------------------------------------|


KEYBOARDS


RIFF 3 (1 time)
e|-----------------------|
B|-----------------------|
G|-----------------------|
D|-----------------------|
A|--5--5--5--5--5--------|
E|--3--3--3--3--3--------|


RIFF 4 (4 times)
e|--------------------------------------------------------------------------|
B|--------------------------------------------------------------------------|
G|--------------------------------------------------------------------------|
D|------------------5-----5-----5------------------7-----7------7-----------|
A|--7-----7------7--3-33333--33333--5-----5-----5--5-55555--55555-----------|
E|--5-55555--55555------------------3-33333-33333---------------------------|
  PM  ....   ....     ....   ....     ....   ....    ....   ....


RIFF 1 (4 times)
e|-----------------------|
B|-----------------------|
G|-----------------------|
D|------5----------------|
A|------3--------5-------|
E|---------------3-------|


KEYBOARDS


RIFF 7 (2 times)
e|-------------------------------------------------------------------|
B|-------------------------------------------------------------------|
G|-2---4-5-4-2h4-2---4-5-4--2----------------------------------------|
D|----------------------------3---3-5-3-2h3-2------------------------|
A|----------------------------------------------3h5-3--3-2-0---------|
E|-------------------------------------------------------------------|


RIFF 8 (4 times)
e|-------------------------------------------------------------------|
B|-----5------5-----5-6-5--------------------------------------------|
G|-5-7----7-5-----5-------7-5----5-7-5-4h5-4-------------------------|
D|---------------------------------------------7h9-7-----------------|
A|---------------------------------------------------7---------------|
E|-------------------------------------------------------------------|


SOLO
e|----------------------------------------------------------|
B|-------------------------15-13----------------------------|
G|-14----14-16-17----16-17-------16h17-16-14-12-14-16-14----|
D|-------------------------------------------------------14-|
A|----------------------------------------------------------|
E|----------------------------------------------------------|

e|-------------------------------------------------------------------|
B|--------------------------------12h13-12-------12-13-12h13-12----12|
G|--------------------------12-14----------14-------------------14---|
D|-12-14-15-14--12-14-12-14------------------------------------------|
A|-------------------------------------------------------------------|
E|-------------------------------------------------------------------|

e|-------------------------------------------------------------------|
B|-13-12-------12h13-12----12-13----12-10-12p10----10----------------|
G|----------12----------------------------------12-------12-14----14-|
D|-------14-------------14-------------------------------------15----|
A|-------------------------------------------------------------------|
E|-------------------------------------------------------------------|


e|-------------------------------------------------------------------|
B|-------------------------------------------------------------------|
G|-------------------------------------------------------------------|
D|-14-15-12-14----12-------------------------------------------------|
A|-------------15----14-15-12-12-12-10-8-7-------------------7-8-7---|
G|-----------------------------------------10-8-7h8-10----10---------|


e|-------------------------------------------------------5-7-7h8-7-|
B|----------------------------------------------5-8----8-----------|
G|----------------------------------------4-5-7--------------------|
D|--7--------------------------5h7----5-7--------------------------|
A|----7-------------------5h7--------------------------------------|
E|------10-8-7-5-8---5h8-------------------------------------------|


e|-5h7-5-3-5------5-7-8----7-5-5h7-5-3-5---------------h--7h8-7------|
B|-----------5--------------------------------------8-10--------10-8-|
G|-----------------------------------------h--9h10-------------------|
D|---------------------------------------7-9-------------------------|
A|-------------------------------------------------------------------|
E|-------------------------------------------------------------------|


e|-------------------7----7-8-7h8-7----7----12h13-12--10-12----12--|
B|-----8-10-10-10------10-----------10----------------------13-----|
G|-9-9-------------------------------------------------------------|
D|-----------------------------------------------------------------|
A|-----------------------------------------------------------------|
E|-----------------------------------------------------------------|


e|----------------------------------------------------|
B|-12-13----------------------------------------------|
G|-------12-12/14-------------------------------------|
D|----------------------------------------------------|
A|----------------------------------------------------|
E|----------------------------------------------------|

RIFF 5 (until fade out)
e|----------------------------------------------|
B|----------------------------------------------|
G|-------------------------------7-9-10-10-10---|
D|------10--------7--------5--------------------|
A|--7---------5--------3------------------------|
E|----------------------------------------------|
Suggest correction
What's this?
You can suggest a correction to this tab. Community and Mods will review your correction and vote to approve or reject it.
comments
We did not receive enough feedback on this tab! Please rate:
print report bad tab
1 2 3 4 5
guest
You may want to rate the tab now too:
select rating
Please do not post tabs as comments. Select "correction" instead!