Oops, an error
Loading. Please wait.

Allegiance Tab

version 2
version 2

Whole song

Interactive

1,155 views 3 this week
no commentswrite comment
1 2 3 4 5
please rate
add to favorites
launch autoscroll
font size
0
reset
how to read this tab
guitar tuner
Tab Pro tools
  • play this tab
  • loop segment
  • change instrument
  • show fretboard
  • metronome
×
Best way to learn
"Allegiance"
Autoscroll
slow
fast
+/-
esc
set tempo
stop
Contributor
Difficulty
Tuning
intermediate
D A D G B E
tuning: drop D

Song: Allegiance
Artist: Dimmu Borgir
Album: Death Cult Armageddon
Tabbed by: Tyler Marley

/or\ legato slide
. palm mute
h hammer on
p pull off
x muted note(fret hand)

Intro: Guitars 1 and 2
E|-------------------|------------------------------------|
B|-------------------|------------------------------------|
G|-------------------|------------------------------------|
D|---------------9-9-|------------------------------------|
A|-8-8-8-8-8-8-8-9-9-|-13\12-12-12-12/13-13\12-12\7-7/8-8-|
D|---8-8-8-8-8-8-9-9-|-13\12-12-12-12/13-13\12-12\7-7/8-8-|
 (repeats)            (repeats)

E|-------------------------------|
B|-------------------------------|
G|-------------------------------|
D|-------------------------------|
A|-13\12-12-12-12/13-13-13-13-13-|
D|-13\12-12-12-12/13-13-13-13-13-|

Riff 1: Guitars 1 and 2
E|------------------|--------------------|-----------------------|
B|------------------|--------------------|-----------------------|
G|------------------|--------------------|-----------------------|
D|-8-8---8-8---12---|-9-8---9-8--9-3-3-3-|-9-8---9-8--9-12-12-12-|
A|-8-8---8-8---12---|-9-8---9-8--9-3-3-3-|-9-8---9-8--9-12-12-12-|
D|-8-8---8-8---12---|-9-8---9-8--9-3-3-3-|-9-8---9-8--9-12-12-12-|
   . .   .                                (repeats from here)

E|--------------------|
B|--------------------|
G|--------------------|
D|-9-8---9-8--9-3-3-3-|
A|-9-8---9-8--9-3-3-3-|
D|-9-8---9-8--9-3-3-3-|

Riff 2: Guitars 1 and 2(listen carefully for this riff)
E|-----------------|
B|-----------------|
G|-4---------------|
D|-4---4--5---4--5-|
A|-2---4--5---4--5-|
D|-----4--5---4--5-|
(repeats)

Riff 3: Guitars 1 and 2
E|---------------------------------------|-----------------------------|
B|---------------------------------------|-----------------------------|
G|-----2-----2---------0-----2h3p2h3p2h3-|-----2-----2---------0-------|
D|-4-4---4-4---4-4-2-2---2-2-------------|-4-4---4-4---4-4-2-2---2-2-2-|
A|---------------------------------------|-----------------------------|
D|---------------------------------------|-----------------------------|
   . .   . .   . . . .   . .               . .   . .   . . . .   . . .

E|---------|
B|---------|
G|-2h3p2h3-|
D|---------|
A|---------|
D|---------|

Riff 4: Guitar 1
E|-----------------------------------|
B|-----------------------------------|
G|-----------------------------9--6--|
D|-1-------1-------1-------9---9--6--|
A|-1-------1-------1-------9---7--4--|
D|-1-------1-------1-------9---------|
(repeats)

Riff 4: Guitar 2
E|-----------------------------------|
B|---5h7-----5h7-----5h7-------------|
G|-------8-------8-------8-----9--6--|
D|-------------------------9---9--6--|
A|-------------------------9---7--4--|
D|-------------------------9---------|
(repeats)

Riff 4 Continued: Guitar 2(Guitar 1 stays the same)
E|----------------------------------------|
B|----5h7-------5h7-------5h7-------------|
G|--8-----8---8-----8---8-----8-----9--6--|
D|------------------------------9---9--6--|(repeats)
A|------------------------------9---7--4--|
D|------------------------------9---------|

Riff 5: Guitar 1
E|------------------------------------------------|
B|----------------------------------------------8-|
G|----------------------------------------8-9-8-x-|
D|------------------------------------8-9-8-x-x-5-|(repeats)
A|-22222-22222-22222-22222-22222-2222-8-9-6-7-6---|
D|-22222-22222-22222-22222-22222-2222-8-9---------|
   ..... ..... ..... ..... ..... ....

Riff 5: Guitar 2
E|-0h2h3p2p0-0h2h3p2p0-0h2h3p2p0-0h2h3p2p0-0h2h3p2p0-0h2h3p2p0-|
B|-------------------------------------------------------------|
G|-------------------------------------------------------------|
D|-------------------------------------------------------------|(repeats
A|-------------------------------------------------------------|
D|-------------------------------------------------------------|

Riff 6: Guitar 1(repeats)
E|-------------------|-------------------|-------------------|
B|-------------------|-------------------|-------------------|
G|-------------------|-------------------|-------------------|
D|-------------------|-------------------|-------------------|
A|-8-8-8-8-8-8-8-8-8-|-8-8-8-8-8-8-8-8-8-|-8-8-8-8-8-8-8-8-8-|
D|-8-8-8-8-8-8-8-8-8-|-8-8-8-8-8-8-8-8-8-|-8-8-8-8-8-8-8-8-8-|
   . . . . . . . . .   . . . . . . . . .   . . . . . . . . .

E|-------------------------|
B|-------------------------|
G|-------------------------|
D|-------------------8---8-|(repeats)
A|-8-8-8-8-8-8-8-8-8-8-8-8-|
D|-8-8-8-8-8-8-8-8-8-8-8-8-|
   . . . . . . . . .   .

Riff 6: Guitar 2
E|-------------------|-------------------|-------------------|---------|
B|-------------------|-------------------|-------------------|---------|
G|-----0h1p0-0h2p0-1-|-----0h1p0-0h2p0-1-|-----1h2p1-1h3p1-2-|---------|
D|-------------------|-------------------|-------------------|---8---8-|
A|-------------------|-------------------|-------------------|-8-8-8-8-|
D|-------------------|-------------------|-------------------|-8-8-8-8-|(repeats)        
                                             .   .

Riff 7: Guitar 1(guitar 2 is same as Riff 6)  Then...(Guitars 1 and 2)
E|--------------------------------------|     E|----------------|
B|--------------------------------------|     B|----------------|
G|-10-7-8-10-8-7-8-10-10-8-7-8-8-10-8-7-|     G|----------------|
D|--------------------------------------|     D|-6-6-6--6-5-5-3-|
A|--------------------------------------|     A|-6-6-6--6-5-5-3-|
D|--------------------------------------|     D|-6-6-6--6-5-5-3-|


Thats all of it!  Good Luck!
comments
We did not receive enough feedback on this tab! Please rate:
print report bad tab
1 2 3 4 5
I want to post or [tab]
guest
You may want to rate the tab now too:
select rating
Please do not post tabs as comments. Select "correction" instead!