Oops, an error
Loading. Please wait.

Allehelgens Dod I Hellveds Rike tab

1,164 views 1 this week
no commentswrite comment
1 2 3 4 5
3 more votes to show rating
add to favorites
×
Save as Personal and add changes to this tab that will be seen only by you. Learn more ›
×
You can save this tab as Personal to edit and correct it or add notes. All changes will be seen only by you. Learn more »
launch autoscroll
font size
0
reset
how to read this tab
guitar tuner
edit
Autoscroll
slow
fast
+/-
esc
set tempo
stop
Author
Band:  (DIMMU BORGIR)
Album: (DEATH CULT ARMAGEDDON)
Song:  (ALLEHELGENS DOD I HELLVEDS RIKE)



Transcribed By: Coty The Wretch


.  - palm mute           /  - slide up to
\  - slide down to       ~  - vibrato
h  - hammer on           b  - Bend
p  - pull off            Suffixes for bend
t  - tap                 f  - full bend    h - half bend
ph - pinched harmonic    q  - quarter bend t - tap bend
*  - see comment         ^  - Hold bend    r release bend
x  - Stuccatto           ~  - vibrato bend
,  - slight palm mute    () - ghost note, sustained note
"  - tremolo note        <> - Trill

Tunning E A D G B E

Riff 1a
|-------------------------------------------------------------------|
|-------------------------------------------------------------------|
|-------------------------------------------------------------------|
|---------------------------------555-4-----2-----------------------|
|-------22222-------33333---------------111-------------------------|
|-00000-------00000-------00000-------------------------------------|


|-------------------------------------------------------------------|
|-------------------------------------------------5-----5-----------|
|-----------------------------------------------3-----3-------------|
|---------------------------------555-4-----2-2-----2---------------|
|-------22222-------33333---------------111-------------------------|
|-00000-------00000-------00000-------------------------------------|
                                                           (2 times)
Gtr 1 continues to play riff 1a while gtr 2 plays:

Riff 1b
|-------------------------------------------------------------------|
|-------------------------------------------------------------------|
|-------------------------------------------------------------------|
|-----------------------555-4-----2---------------------------------|
|-2--------2--------2---------111-----------------------------------|
|-0--0000000--0000000-----------------------------------------------|
  .  .......  .......

|-------------------------------------------------------------------|
|-------------------------------------------------------------------|
|-------------------------------------------------------------------|
|-----------------------555-4-----2---------------------------------|
|-2--------2--------2---------111-----------------------------------|
|-0--0000000--0000000-----------------------------------------------|
  .  .......  .......                                      (2 times)

|-------------------------------------------------------------------|
|------5-----5-----------------------5-----5-----5-----5------------|
|----3-----3-----------------------3-----3-----3-----3--------------|
|-*2-----2---------------------**2-----2-----2-----2----------------|
|-------------------------------------------------------------------|
|-------------------------------------------------------------------|
  * ending the first time      ** ending the second time

Riff 2a
|-------------------------------------------------------------------|
|-------------------------------------------------------------------|
|-11--11--10---------"11--"8----------------------------------------|
|--9---9---8---"12---"11--"8---"11----------------------------------|
|--9---9---8---"10---"-9--"6---"-9----------------------------------|
|-------------------------------------------------------------------|
                                                           (6 times)

Transition 1
|-------------------------------------------------------------------|
|-------------------------------------------------------------------|
|-11--11--10--------------------------------------------------------|
|--9---9---8--------------------------------------------------------|
|--9---9---8--------------------------------------------------------|
|-------------------------------------------------------------------|

Riff 2b
|-------------------------------------------------------------------|
|-------------------------------------------------------------------|
|------11--11-------------------------------------------------------|
|-"12---9---9---"12--------------8----------------------------------|
|-"10---9---9---"10---66666-9999------------------------------------|
|-------------------------------------------------------------------|

|-------------------------------------------------------------------|
|-------------------------------------------------------------------|
|------11-11--------------------------------------------------------|
|-"12---9--9---"12--------------------------------------------------|
|-"10---9--9---"10---66666-9999-6-----------------------------------|
|-------------------------------------------------------------------|
                                                           (2 times)

Riff 3a
|-------------------------------------------------------------------|
|-------------------------------------------------------------------|
|-------------------------------------------------------------------|
|----8------------8-------------4------------4----------------------|
|----6------------6-------------4------------4----------------------|
|-66-6-66-66-66-6-6-66-66-6--22-2-22-22-22-2-2-22-22-2--------------|
  ..   .. .. .. .   .. .. .  ..   .. .. .. .   .. .. .

|-------------------------------------------------------------------|
|-------------------------------------------------------------------|
|-------------------------------------------------------------------|
|----6------------6-------------9------------9----------------------|
|----4------------4-------------9------------9----------------------|
|-44-4-44-44-44-4-4-44-44-4--77-7-77-77-77-7-7-77-77-7--------------|
  ..   .. .. .. .   .. .. .  ..   .. .. .. .   .. .. .     (2 times)

Riff 3b
|-------------------------------------------------------------------|
|-------------------------------------------------------------------|
|-------------------------------------------------------------------|
|-8-----8-----8-----8------4------4------4------4-------------------|
|-6-----6-----6-----6------4------4------4------4-------------------|
|-6-666-6-66--6-666-6-666--2-2222-2-2222-2-2222-2-2222--------------|
    ...   ..    ...   ...    ....   ....   ....   ....

|-------------------------------------------------------------------|
|-------------------------------------------------------------------|
|-------------------------------------------------------------------|
|-6-----6-----6-----6------9------9------9------9-------------------|
|-4-----4-----4-----4------9------9------9------9-------------------|
|-4-444-4-44--4-444-4-444--7-7777-7-7777-7-7777-7-7777--------------|
    ...   ..    ...   ...    ....   ....   ....   ....     (2 times)

Riff 4a
|-------------------------------------------------------------------|
|----------------------5---4---5---4--------------------------------|
|----------------------6---6---6---6--------------------------------|
|-4---4---4---4--------6---6---6---6--------------------------------|
|-4---4---4---4--------4---4---4---4--------------------------------|
|-2---2---2---2--------4---4---4---4--------------------------------|
                                                           (4 times)
Riff 4b
|-------------------------------------------------------------------|
|-------------------------------------------------------------------|
|----------------------6--------------------------------------------|
|-4--------------------6--------------------------------------------|
|-4--------------------4--------------------------------------------|
|-2-2222222222222222---4-4444444444444444---------------------------|
    ................     ................                 (2 times)


Gtr 1 plays the higher notes
Gtr 2 plays the lower notes
|--------------9--9--7--5---9--9------------------------------------|
|-----10--12--10-10--9--7--10-10--9--10--12-------------------------|
|--9--11--13----------------------9--11--13---9---------------------|
|-11-----------------------------------------11---------------------|
|-------------------------------------------------------------------|
|-------------------------------------------------------------------|


|--------------9--9--7--5---9--9------------------------------------|
|-----10--12--10-10--9--7--10-10--9--10--12-------------------------|
|--9--11--13----------------------9--11--13---9/x-------------------|
|-11-----------------------------------------11/x-------------------|
|-------------------------------------------------------------------|
|-------------------------------------------------------------------|

Play Riff 2a 4 times then

Transition 2
|-------------------------------------------------------------------|
|-----5-----5-----5-----5-------------------------------------------|
|---3-----3-----3-----3---------------------------------------------|
|-2-----2-----2-----2-----------------------------------------------|
|-------------------------------------------------------------------|
|-------------------------------------------------------------------|

Riff 5
|--------------------------------------------------------------------|
|--------------------------------------------------------------------|
|--------------------------------------------------------------------|
|----------------------------999-------------------------------------|
|-2-77-66-77-88888-------666-----------77-66-77-88888------------3333|
|-0------------------000-----------000-----------------4444-1111-----|

|-----------------------------------------------------------------------------|
|-----------------------------------------------------------------------------|
|-----------------------------------------------------------------------------|
|----------------------------999----------------------------------------------|
|-2-77-66-77-88888-------666-----------77-66-77-88888------------6h7p6h7p6h7p6|
|-0------------------000-----------000-----------------4444-1111--------------|

|---------------------------------------------------------------------|
|---------------------------------------------------------------------|
|---------------------------------------------------------------------|
|----------------------------999--------------------------------------|
|-2-77-66-77-88888-------666-----------77-66-77-88888------------3333-|
|-0------------------000-----------000-----------------4444-1111------|

|-------------------------------------------------------------------|
|-------------------------------------------------------------------|
|-------------------------------------------------------------------|
|----------------------------999------------------------------------|
|-2-77-66-77-88888-------666-----------77-66-77-88888------------6--|
|-0------------------000-----------000-----------------4444-1111----|

Play Riff 1a 2 times then

Riff 6
Gtr 1
|-------------------------------------------------------------------|
|-------------------------------------------------------------------|
|----------------------444-3-----3----------------------444-3-----3-|
|----------------------------222------------------------------222---|
|-2--------2--------2---------------2--------2--------2-------------|
|-0--0000000--0000000---------------0--0000000--0000000-------------|
  .  .......  .......               .  .......  .......

Gtr 2
|-------------------------------------------------------------------|
|-------------------------------------------------------------------|
|-------------------------------------------------------------------|
|----------------------555-4-----2-----------------------555-4-----2|
|-2--------2--------2--------111----2--------2--------2--------111--|
|-0--0000000--0000000---------------0--0000000--0000000-------------|
  .  .......  .......               .  .......  .......    (2 times)

Both Gtrs
|-------------------------------------------------------------------|
|------5-----5------------------5-----5-----5-----5------------------|
|----3-----3------------------3-----3-----3-----3-------------------|
|-*2-----2----------------**2-----2-----2-----2---------------------|
|-------------------------------------------------------------------|
|-------------------------------------------------------------------|
  * Ending first time     **Ending second time

Riff 7
Gtr 1
|-------------------------------------------------------------------|
|-------3-2-3-------3-2-3----------6-5-6-------6-5-6----------------|
|-----4-----------4--------------7-----------7----------------------|
|---4-----------4--------------7-----------7------------------------|
|-2-----------2--------------5-----------5--------------------------|
|-------------------------------------------------------------------|

|-------------------------------------------------------------------|
|-------------------------------------------------------------------|
|-------5-4-5-------5-4-5----------3-2-3-------3-2-3----------------|
|-----7-----------7--------------5-----------5----------------------|
|---7-----------7--------------5-----------5------------------------|
|-5-----------5--------------3-----------3--------------------------|
                                                           (3 times)

Gtr 2
|-------------------------------------------------------------------|
|-------------------------------------------------------------------|
|-4----------7------------------------------------------------------|
|-4----------7---------------7-----------5--------------------------|
|-2----------5---------------7-----------5--------------------------|
|----------------------------5-----------3--------------------------|

|-------------------------------------------------------------------|
|-------------------------------------------------------------------|
|-------------------------------------------------------------------|
|-"4---------"7-----------------------------------------------------|
|-"2---------"5--------------"7----------"5-------------------------|
|----------------------------"5----------"3-------------------------|
   .          .               .           .
|-------------------------------------------------------------------|
|-------------------------------------------------------------------|
|-4----------7------------------------------------------------------|
|-4----------7---------------7------------5-------------------------|
|-2----------5---------------7------------5-------------------------|
|----------------------------5------------3-------------------------|


Both Gtrs
|-------------------------------------------------------------------|
|-------------------------------------------------------------------|
|-------------------------------------------------------------------|
|-"4---------"7-----------------------------------------------------|
|-"2---------"5-------------"7------------"5------------------------|
|---------------------------"5------------"3------------------------|

|-------------------------------------------------------------------|
|-------------------------------------------------------------------|
|-4-3--4-3--4-3--4-3--4-3--4-3---4-----------------------------------|
|-2----2----2----2----2----2-----2-----------------------------------|
|-------------------------------------------------------------------|
|-------------------------------------------------------------------|

END

            
            
Suggest correction
Creating personal tab
Creating personal tab
You can edit any tab online and save it as your Personal.

You can edit, replace or remove any tab part or add personal notes – all changes will be seen only by you.

Personal tabs can be accessed anytime from any device, even offline.
Learn more »
Give kudos to tab author, rate the tab!
1 2 3 4 5
comments
print report bad tab
guest
You may want to rate the tab now too:
select rating
Wanna post a correction for this tab? Suggest correction