Oops, an error
Loading. Please wait.

Allehelgens Dod I Helveds Rike Tab

1,278 views 1 this week
2 commentsread comments
1 2 3 4 5
2 more votes to show rating
add to favorites
launch autoscroll
font size
0
reset
how to read this tab
guitar tuner
Autoscroll
slow
fast
+/-
esc
set tempo
stop
Help us to improve Ultimate-Guitar.com Take our survey!
×
Author
============================================================================
Dimmu Borgir-"Allehelgens Dod i Helveds Rike" (intro) 
============================================================================
[track 7 of Death Cult Armageddon]
============================================================================
Tabbed by:Mike(silenzo666)
Email:gildednymphetamine@yahoo.com
Site:http://x220.biz.ly/
Tuning:Drop-C (CGCFAD)

============================================================================
| S means Sustain Note
| B means Bend Note
| ~ means Vibrato Note
============================================================================

D|------------------------------------------------------|
A|------------------------------------------------------|
F|------------------------------------------------------|
C|------------------------------------------------------|
G|-------4-4-4-------5-5-5-------9-9-9-8-8-8-7-7-7-8-8-8|
C|-3-3-3-------3-3-3-------3-3-3------------------------|

|-------------------------------------------------------|
|-------------------------------------------------------|
|-------------------------------------------------------|
|----------------------------------9s-9s---9s-9s--------|
|-------4-4-4-------5-5-5--------9s-----9s--------------|
|-3-3-3-------3-3-3--------3-3-3------------------------|

(repeat those two lines and then the last six notes should repeat)

============================================================================
Suggest correction
Give kudos to tab author, rate the tab!
1 2 3 4 5
comments
print report bad tab
2 comments total.
0 reply
7stringDemon 10 Nov 08, 2006 05:30 PM

i can say it's not accurate, however i can't tab the whole thing either. but this is what i got. [same tuning]

-----------------------------------------------------
-----------------------------------------------------
-----------------------------------------------------
----------------------------7777---------------------
-------4444------5555------------333/4---------------
-4444-------4444------4444---------------------------

then it repeats with this ending i can't figure out, i hope that helps

0 reply
\m/Death\m/ 10 Oct 17, 2011 06:58 PM

There's so many ways this can be played... @7stringDemon I think it might go like this but don't take my word
C----------------777666---------
G----444---555------------4-----
C-444---444---444------333------
I also cant figure out the ending, but this is what i came up with..

guest
You may want to rate the tab now too:
select rating
Wanna post a correction for this tab? Suggest correction