Oops, an error
Loading. Please wait.

Alt Lys Er Svunnet Hen Tab

version 1
version 1

Intro

Whole song

Interactive

2,670 views 3 this week
1 commentread comment
1 2 3 4 5
excellent!
x 7
add to favorites
launch autoscroll
font size
0
reset
how to read this tab
guitar tuner
Autoscroll
slow
fast
+/-
esc
set tempo
stop
Help us to improve Ultimate-Guitar.com Take our survey!
×
Author
Tabbers playing skills
intermediate +
                            Alt lys er svunnet hen
-------------------------------------------------------------------------------
Tabbed by:lespaulakias11
Email:lespaulakias11@yahoo.gr

Tuning:standard
  ok i arrenged this for classic guitar.enjoy
e|--15----19-----17---15----17---19----|--19---17----15--14------|--|
B|-------------------------------------|----------------------16-|-------------------------|
G|-------------------------------------|-------------------------|-------------------------|
D|--14----17-----16---14---------------|-----------------12---13-|-------------------------|
A|--------------------------12---14----|--15---------------------|-------------------------|
E|-------------------------------------|-------------------------|-------------------------|
  part 2(let ring throughout)
e|--3------------7----------7------|--5---------3--------5-----|-----------------------|
B|----------0-----------0----------|--------0---------0--------|-----------------------|
G|------0-----------0----------0---|-----0---------0-------0---|-----------------------|
D|---------------------------------|---------------------------|-----------------------|
A|--7------------------------------|--6------------------------|-----------------------|
E|---------------------------------|---------------------------|-----------------------|

e|-7----------7----------7---------|--5-------3---------5----|------------------------|
B|--------0---------0--------------|-------------------------|------------------------|
G|-----0----------0---------0------|-------5---------5-------|------------------------|
D|---------------------------------|-----5-------5--------5--|------------------------|
A|-5-------------------------------|--3----------------------|------------------------|
E|---------------------------------|-------------------------|------------------------|

e|-3----------7---------7------|---5------------------5-----|------|---------------------|
B|-----------------------------|-------------8--------------|------|---------------------|
G|--------5----------5---------|---------7--------7---------|------|---------------------|
D|-----5--------5---------5----|------7--------7---------7--|--7---|---------------------|
A|-3---------------------------|---5------------------------|--0---|---------------------|
E|-----------------------------|----------------------------|------|---------------------|
  part 3(play twice)
e|--3----7-----6---3--5----7---|----7-----5----3-2--------|--|
B|-----------------------------|---------------------4----|--|
G|-----------------------------|--------------------------|--|
D|--2----5-----4---2-----------|-----------------0---1----|--|
A|--------------------0----2---|----3---------------------|--|
E|-----------------------------|--------------------------|--|
  part 4 ( just a small part,play twice)
e|--3---2----------2-----------3----------5----5---3--2--|-----------------------------|
B|---------5----5-----5----5------5----5-----------------|-----------------------------|
G|-----------4----------4-----------4--------------------|-----------------------------|
D|-------------------------------------------------------|-----------------------------|
A|-------------------------------------------------------|-----------------------------|
E|-------------------------------------------------------|-----------------------------|

 hope you like it.if part 1 is difficult to play on a classic replace with part 3.
Suggest correction
comments
print report bad tab
1 comment total.
0 reply
guitarosaur rex 10 wrote on June 20 2009, 05:44 am

great tab

guest
You may want to rate the tab now too:
select rating
Wanna post a correction for this tab? Suggest correction